busca

Noite Feliz

Natal

Tom: C
E |---------------------------------------------------------------------------------0----
B |-------------------3-3-0-1-1-------1-0---------------1-0-----------3-3--6--3-0-1---1--
G |-----------------------------0-2-2-----2-0-2-0---2-2-----2-0-2-0--------------------0-
D |-5-7-5----5-7-5--------------------------------2-----------------2-------------------
A |-------7--------7---------------------------------------------------------------------
E |--------------------------------------------------------------------------------------

E |----------------------------------------------------
B |----------------------------------------------------
G |---0------------------------------------------------
D |-2---3-0--------------------------------------------
A |---------3------5-7-8-------------------------------
E |----------------------------------------------------

Clipes

Cifra Club Pro

Aproveite o Cifra Club com benefícios exclusivos e sem anúncios
7 dias grátis
Cifra Club Pro
Aproveite o Cifra Club com benefícios exclusivos e sem anúncios
7 dias grátis