busca

1996

Natiruts

Tom: D
            Em7                                           D
                                        
E|--------|7-7-7-7-7-7-7|---------|7-7-7-7-7-7-7|--7-5-----5-5-5-5-5-5-5-------5-5-5-5-5-5-5--|
B|-|5-7-8|--------------- -|5-7-8|---------------------8-7---------------5-7-7----------------|
G|--------------------------------------------------------------------------------------------|
D|--------------------------------------------------------------------------------------------|
A|--------------------------------------------------------------------------------------------|
E|--------------------------------------------------------------------------------------------|
            Em7                                              D
                 
E|---------|7-7-7-7-7-7-7|----------|7-7-7-7-7-7-7|---|7-5------|5-5-5-5-5-5-5-|-5-5-5-5-5-5-5|
B|--|5-7-8|------------------|5-7-8|----------------------8-7-|-------------------------------|
G|--------------------------------------------------------------------------------------------|
D|--------------------------------------------------------------------------------------------|
A|--------------------------------------------------------------------------------------------|
E|--------------------------------------------------------------------------------------------|
A7+
Sem entender, nem explicar
Bm7
Tudo aquilo que vem de você
A7+
Eu vou fechar os meus olhos e ver
Bm7
A pérola que a vida trouxe pra mim
A7+
Eu pego o pedacinho do céu
Bm7
Pra colocar minha estrela linda
A7+                     Bm7
Se o tempo tiver algum jeito

Que a gente possa parar
D7+            Bm7           A7+
Finalmente poderei te encontrar
D7+            Bm7         A7+
Felizmente estarei com você aqui

D7+          Bm7               A7+
E você nem sabia que podia gostar assim
D7+          Bm7                C#m7
E você nem sabia que o mundo tinha fim

Solo

E|-7h9p7-9-9h10p9-7------------------------------------|
B|------10-10------------------------------------------|
G|-----------------------------------------------------|2x
D|-----------------------------------------------------|
A|-----------------------------------------------------|
E|-----------------------------------------------------|

E|--------7-7-/9\--7h9---------------------------------|
B|-9h10p9-9-9/-10\-9-----------------------------------|
G|-----------------------------------------------------|2x
D|-----------------------------------------------------|
A|-----------------------------------------------------|
E|-----------------------------------------------------|

E|-----------------------------------------------------|
B|-7-7-10-12/14-10-------------------------------------|
G|-----------------------------------------------------|2x
D|-----------------------------------------------------|
A|-----------------------------------------------------|
E|-----------------------------------------------------|

E|-----------------11/12-------------------------------|
B|-9-9-10/12\10-9~-------9-9-7/9-----------------------|
G|-------------------------------9-9h11----------------|
D|-----------------------------------------------------|
A|-----------------------------------------------------|
E|-----------------------------------------------------|

E|----------------------13/14--------------------------|
B|-7-7-10-12/14--7-7-10-------14-----------------------|
G|-----------------------------------------------------|
D|-----------------------------------------------------|
A|-----------------------------------------------------|
E|-----------------------------------------------------|

E|-13/14-13/14-----------------------------------------|
B|-------------12/14\12-10-10~-------------------------|
G|-----------------------------------------------------|
D|-----------------------------------------------------|
A|-----------------------------------------------------|
E|-----------------------------------------------------|

E|-----------------------------------------------------|
B|-----------------------------10----------------------|
G|-9h11p9--------------------9-------------------------|
D|--------9h11p9-7-7~-7-7h9/11-------------------------|
A|-----------------------------------------------------|
E|-----------------------------------------------------|

E|--------9----------16--16/17\16----------------------|
B|-9h10p9---10/12/14--------------17-------------------|
G|-----------------------------------------------------|
D|-----------------------------------------------------|
A|-----------------------------------------------------|
E|-----------------------------------------------------|

E|-----------------------------------------------------|
B|-12/14\12-12/14-12/14-12/14\12-12/14\12-12/14~-------|
G|-----------------------------------------------------|
D|-----------------------------------------------------|
A|-----------------------------------------------------|
E|-----------------------------------------------------|

E|-7h9p7-9-9h10p9-7------------------------------------|
B|------10-10------------------------------------------|
G|-----------------------------------------------------|2x
D|-----------------------------------------------------|
A|-----------------------------------------------------|
E|-----------------------------------------------------|

E|--------7-7-7-9--------------------------------------|
B|-9h10p9-9-7-9-10-------------------------------------|
G|-----------------------------------------------------|
D|-----------------------------------------------------|
A|-----------------------------------------------------|
E|-----------------------------------------------------|

E|------------------9-9-9-9-9-9-9----------------------|
B|-9h10p9-9-7-9-10--7-7-7-7-7-7-7----------------------|
G|------------------7-7-7-7-7-7-7----------------------|
D|-----------------------------------------------------|
A|-----------------------------------------------------|
E|-----------------------------------------------------|

E|---------9-9-9-9-9-9-9-------------------------------|
B|-7-9-10--7-7-7-7-7-7-7-------------------------------|
G|---------7-7-7-7-7-7-7-------------------------------|
D|-----------------------------------------------------|
A|-----------------------------------------------------|
E|-----------------------------------------------------|

E|-9-7--------7-7-7-7-7-7-7--------7-7-7-7-7-7-7-------|
B|-----10\7---9-9-9-9-9-9-9--5-7-9-9-9-9-9-9-9-9-------|
G|------------9-9-9-9-9-9-9--------9-9-9-9-9-9-9-------|
D|-----------------------------------------------------|
A|-----------------------------------------------------|
E|-----------------------------------------------------|

E|---------9-9-9-9-9-9-9-------------------------------|
B|-7-9-10--7-7-7-7-7-7-7-------------------------------|
G|---------7-7-7-7-7-7-7-------------------------------|2x
D|-----------------------------------------------------|
A|-----------------------------------------------------|
E|-----------------------------------------------------|

E|-9-7--------7-7-7-7-7-7-7--------7-7-7-7-7-7-7-------|
B|-----10\7---9-9-9-9-9-9-9--5-7-9-9-9-9-9-9-9-9-------|
G|------------9-9-9-9-9-9-9--------9-9-9-9-9-9-9-------|2x
D|-----------------------------------------------------|
A|-----------------------------------------------------|
E|-----------------------------------------------------|

Clipes