busca

A Hipnose do Amor

Natiruts

Tom: B
Intro 2x: F#7M  E7M  D7M  C#7M
          C#7M  D#7M  C7M

D7M             E7M             C#7M
Nem o mais sábio iria entender
D7M             E7M                   C#7M
Quando sem pressa o sorriso chegou
D7M        E7M                   C#7M
Cheiro de mato, a luz e o breu
D7M      E7M                    C#7M
E o seu silêncio por tudo falou
D7M                 E7M                                  C#7M
Não esconde o orgulho que é pra ninguém ver
D7M       E7M                     C#7M
Que o pecado tem razão de ser
D7M  E7M                C#7M
Inevitáveis a rosa e o mel
D7M           E7M                         C#7M
Sons do teu corpo em acordes do amor

Solo:

E|------------------7/9-9-8---9-8------------7-8/12-12-11-11-16-11-16/17/16-14-16~-14/13-14-13/11-13-11-9-8---9-8------------7/9-9-|
B|-6-7-6-7-9-10-9-10-------9-----9--9-10-9-10--------------------------------------------------------------9-----9--9-10-9-10------|
G|--------------------------10----10------------------------------------------------------------------------10----10---------------|
D|---------------------------------------------------------------------------------------------------------------------------------|
A|---------------------------------------------------------------------------------------------------------------------------------|
E|---------------------------------------------------------------------------------------------------------------------------------|

E|--8-8-14-13-8-4-1--|
B|-------------------|
G|-------------------|
D|-------------------|
A|-------------------|
E|-------------------|

Clipes

Cifra Club Pro

Aproveite o Cifra Club com benefícios exclusivos e sem anúncios
7 dias grátis
Cifra Club Pro
Aproveite o Cifra Club com benefícios exclusivos e sem anúncios
7 dias grátis