busca

Caraíva

Natiruts

Tom: B
INTRO : (Riff)2x 

                G#m                                        E
Riff 1:
      e|------------------------------------|   e|----------------0------------|
      B|----------------4~~-4h5p4-----------|   B|----------------0-0-0-0/2~~--|
      G|----------4~~---4~~-------4-4-4/6-6-|   G|----------4~~---1-1-1-1/3~~--|
      D|------4h6-----6-------------6-6/8-8-|   D|------4h6-----6-2------------|
      A|--4h6-------------------------------|   A|--4h6-----------2------------|
      E|------------------------------------|   E|----------------0------------|

G#m            F#
Comemorar o luar que fez
G#m                            F#
A sintonia da noite com esse céu inteiro
G#m                             F#
O vento avisa ao longe que só vai chover
G#m                          F#
Lampejos de alegria, beijos de amor
G#m                 F#
Você me traz esse mar de bem
G#m                        F#
E a energia da noite vai abençoar
G#m                            F#
Será que ainda há tempo para proteger
G#m                          F#
E preservar essa vida como Deus criou? Deus criou

Refrão

E                     F#
Sinta ainda, o céu tocar você
             E                      F#
espero que seja linda, quando quiser amor, seu amor
E                  F#
acredita que em todo sonho bom
E                               D#
sempre há primavera e nunca solidão.


Riff 1

solo:
e|------------------------------------------------------------------
B|------------------------------------------------------------------
G|------4---------4---6h7p6--4---4--4h6-----------------------------
D|--4/6--6~~--4/6---6----------6--------4~~-----4-4---4--6--4h6~~---
A|------------------------------------------4/6-----6---------------
E|------------------------------------------------------------------


e|--------------------------5/7--------7--4h6-6-4---2--4--2h4~~-----
B|--------------------------7/9--7~~--------------4-----------------
G|-------4---6h7p6--4---4-------------------------------------------
D|---4/6---6----------6---------------------------------------------
A|------------------------------------------------------------------
E|------------------------------------------------------------------


e|--9h11--12--9h11--11--9---7--9--7h9~~---7/9---9-------------------
B|----------------------------------------9/11--11---9\7--7--9--7H9-
G|------------------------------------------------------------------
D|------------------------------------------------------------------
A|------------------------------------------------------------------
E|------------------------------------------------------------------


e|-------7---9^10^9---7---7---14H16--14---7/9---9---7\6-------------
B|---7/9---9------------9-----------------9/11--11--9\7-------------
G|------------------------------------------------------------------
D|------------------------------------------------------------------
A|------------------------------------------------------------------
E|------------------------------------------------------------------


Qualquer correção mande para o e-mail: rtokunaga@ig.com.br
enviada por: Rogério Tokunaga

Clipes

Cifra Club Pro

Aproveite o Cifra Club com benefícios exclusivos e sem anúncios
7 dias grátis
Cifra Club Pro
Aproveite o Cifra Club com benefícios exclusivos e sem anúncios
7 dias grátis