busca

Caraíva

Natiruts

intro só a guitarra no arpejo

ai depois no final do arpejo junto com o chimbal da batera entra o baixo

Intro:

G|--------------------------------------------------------------------
D|--------------------------------------------------------------------
A|------------------------------------6~~-----------------------------
E|---------------------------------------------------0~~--------------


comemorar o luar que fez ...

esse riff entre um tempinho antes da voz quase no final da virada da batera

Riff 
G|--------------------------------------------------------------------
D|--------------------------------------------------------------------
A|--5-5-------------------5-5---3---1--3-3---0-------------0-0--------
E|--------6--3---------3-------------------------1-----0-1-------------




Refrão:



G|--------------------------------------------------------------------
D|--------------------------------------------------------------------     4X
A|6-6---6-3---6-6--(6)--6-3---6-6---8-8--8-6---8-8--(8)-8-6--8--------
E|----------5---------------5---------------6--------------6----------


ele fa isso 4 vezes na ultima vez ele deixa o 8 soar até a oitava tpo assim

G|-------------------------------------------
D|-------------------------------------------
A|6-6---6-3---6-6--(6)--6-3---6-6---8~~~~~~16
E|----------5---------------5----------------

Clipes

Cifra Club Pro

Aproveite o Cifra Club com benefícios exclusivos e sem anúncios
7 dias grátis
Cifra Club Pro
Aproveite o Cifra Club com benefícios exclusivos e sem anúncios
7 dias grátis