busca

Cheiro de Flôr

Natiruts

Tom: A
Quando eu penso em você.. eu sinto um cheiro de flor..

F#m7
Quando eu penso em você..
G#m7
Eu sinto um cheiro de flor..
F#m7
Quando eu penso em você..
F#m7
Me faz curar de toda dor..

F#m7
O reggae é uma expressão de pura paz e amor..
G#m7
É o remédio para qualquer alma que está a sofrer..
F#m7
Sua beleza a terra do samba encantou..
G#m7
Como a flor mais sincera que ofereço pra você..
F#m7
Mas não esqueça que esse mundo também tem muita dor..
G#m7
E que é preciso ter amor para enfrentar o que lhe faz sofrer..
F#m7
Vamos rimando fácil assim.. e desejando a paz no fim..
G#m7
Terei coragem de chorar.. e jogarei flores no mar..
F#m7
E brilho pra te merecer.. 
F#m7
quem foi que disse que o dread que o dread não gostava de sambar, sambar, sambar, sambar, sambar...

>solo : C#m7 G#m7 2x

B|---------------------------------------------------------------------------------------------
G|-8h9h8-8h9h8-8h9h8-8h9h8-8h9h8-8h9h8-8h9h8-8h9h8-9/11-1111-99-9-8~8h9-8-------------9---------
D|------------------------------------------------------------------------11-9---9h11---11~~~~--
A|-----------------------------------------------------------------------------11--------------

B|------------------------------------------------------
G|-9-11-9/11--11-9----9\6--999-8------------------------
D|----------------11~------------11---------------------
A|---------------------------------9~~------------------

uuhh uhhhuuhhhhhh..

F#m7
Jamais deixe nossa fé morrer.. 
G#m7
e vem.. O sol que já vai brilhar.. 
F#m7
traz a criança num banho de mar..
G#m7
Juro não fingir.. eu sei posso tentar..
F#m7
Ser eu depois você.. ser livre para amar..
G#m7                                 F#m7
Não podemos fugir.. deixa o amor florescer..

F#m7
Quando eu penso em você..
G#m7
Eu sinto um cheiro de flor..
F#m7
Quando eu penso em você..
G#m7
Me faz curar de toda dor..

solinho do final..
e|-9~--12-12-12--9-9-9~--------11~--14-14-14--11-11-11~----------------------
B|-10~------------------10-----12~----------------------14-12~---------------
G|-9~---------------------9~---11~------------------------------------------
D|-------------------------------------------------------------------------

e|-9~--12-12-12--9-9-9--------11~--14-14-14--11-11-11~--11----11----11----11-------9~~------
B|-10~-----------------10-----12~---------------------------12----12----12--12-----10~~-----
G|-9~--------------------9~---11~-------------------------11----11----11------11---9~~------
D|----------------------------------------------------------------------------------------

   Repete até o fim..
  F#m7       G#m7
e|-9~~~-------11~~~-----------------
B|-10~~~------12~~~------------------
G|-9~~~-------11~~~-----------------

Flooor..

Clipes

Cifra Club Pro

Aproveite o Cifra Club com benefícios exclusivos e sem anúncios
7 dias grátis
Cifra Club Pro
Aproveite o Cifra Club com benefícios exclusivos e sem anúncios
7 dias grátis