busca

Dentro da Música II

Natiruts

Tom: A#
Intro: Riff 1

              Gm7      Cm7(9)
E|----------------------------------------|
B|----------------------------------------|
G|--------3--------3---------3--------3---|
D|-----3--------3---------1--------1------|
A|----------------------3--------3--------|
E|--3--------3----------------------------|

E|-------------15-13----------------------|
B|-------13-15-------15-13----------------|
G|-12-15----------------------------------|
D|----------------------------------------|
A|----------------------------------------|
E|----------------------------------------|

Quero te mostrar um mundo novo de cores
Viva
Quando se acredita a gente pode ter tudo
Livre
Carregue sua fé no sol que está em seu peito
Força
Libere esse sorriso e vá dançar do seu jeito
Porque

 Gm7      Cm7(9)
Se a lua vai brilhar
E o vento vai soprar
E a chuva vai chover
Quem vai amar você?
Não vá se preocupar
Deixe o destino agir
E o corpo vai sentir
                               Gm7
Cometas e estrelas descendo aqui

[Solo]

E|----------------------------------------|
B|----------------------------------------|
G|----------------------------------------|
D|---------5-3----------------------------|
A|-----3-5-----5-3------------------------|
E|-3-6------------------------------------|

 Gm7      Cm7(9)
Dentro da música

E|----------------------------------------|
B|----------------------------------------|
G|----------------------------------------|
D|-----5-3--------------------------------|
A|-5-3------------------------------------|
E|----------------------------------------|

 Gm7       Cm7(9)
Dentro da música

E|----------------------------------------|
B|----------------------------------------|
G|----------------------------------------|
D|---------5-3----------------------------|
A|-----3-5-----5-3------------------------|
E|-3-6------------------------------------|

 Gm7       Cm7(9)
Dentro da música

E|----------------------------------------|
B|----------------------------------------|
G|----------------------------------------|
D|-----5-3--------------------------------|
A|-5-3------------------------------------|
E|----------------------------------------|

Gm7                        Cm7(9)
Enfrento qualquer parada com você
 Gm7                      Cm7(9)
Nós em busca do caminho do amor
Gm7                        Cm7(9)
Sei que todo mundo um dia vai sofrer
 Gm7                             F7
E nosso coração também vai sentir dor

 Gm7                                Dm7
Mas no final, tudo, tudo, vai resolver
 Cm7                    F7
Como o sol se põe e a lua nasce
Gm7                        Dm7
E a noite vai brilhar sua luz
 Cm7                      F7     F#º
Por todo lugar, e nos sonhos da gente

   Gm         Dm7       Cm7
Então vamos sorrir e celebrar
    F7
Tudo que há de bom
    Gm7             Dm7    Cm7
Eu vou estar com você, por todo lugar
   F7            F#º
E nos sonhos da gente

( Gm7  Dm7  Cm7  F7 )
( Gm7  Dm7  Cm7  F7 )

E|----------1-----------------------------|
B|------------3-1-------------------------|
G|---------------3-5^-3-0-----------------|
D|----------------------------------------|
A|---3-5-3-5------------------------------|
E|-3--------------------------------------|

E|----------------------------------------|
B|----------------------------------------|
G|----------------------------------------|
D|-----------3-5^-3-----------------------|
A|---3-5-3-5------------------------------|
E|-3----------------5-3-------------------|

E|-----------1----------------------------|
B|-------------3-1------------------------|
G|-----------------3-5^-3-0---------------|
D|----------------------------------------|
A|---3-5-3-5------------------------------|
E|-3--------------------------------------|

E|----------------------------------------|
B|----------------------------------------|
G|----------------------------------------|
D|-----------3-5^-3-----3-5---------------|
A|---3-5-3-5------------------------------|
E|-3----------------5-3-------------------|

Gm                       Dm7
Enfrento qualquer parada com você
 Cm7                       F7
Nós em busca do caminho do amor
 Gm                       Dm7
Sei que todo mundo um dia vai sofrer
Cm7                            F7
E nosso coração também vai sentir dor

 Gm                                Dm7
Mas no final, tudo, tudo, vai resolver
 Cm7                    F7
Como o sol se põe e a lua nasce
Gm                        Dm7
E a noite vai brilhar sua luz
 Cm7                      F7     F#º
Por todo lugar, e nos sonhos da gente

  Gm          Dm7       Cm7
Então vamos sorrir e celebrar
    F7
Tudo que há de bom
    Gm             Dm7    Cm7
Eu vou estar com você, por todo lugar
   F7            F#º
E nos sonhos da gente

( Gm7  Dm7  Cm7  F7 )

E|----------------------------------------|
B|----------------------------------------|
G|----------------------------------------|
D|---------5-3----------------------------|
A|-----3-5-----5-3------------------------|
E|-3-6------------------------------------|

               Cm7
Dentro da música

E|----------------------------------------|
B|----------------------------------------|
G|----------------------------------------|
D|-----5-3--------------------------------|
A|-5-3------------------------------------|
E|----------------------------------------|

               Gm7
Dentro da música

E|----------------------------------------|
B|----------------------------------------|
G|----------------------------------------|
D|---------5-3----------------------------|
A|-----3-5-----5-3------------------------|
E|-3-6------------------------------------|

               Cm7
Dentro da música

E|----------------------------------------|
B|----------------------------------------|
G|----------------------------------------|
D|-----5-3--------------------------------|
A|-5-3------------------------------------|
E|----------------------------------------|

( Gm7  Dm7  Cm7   F7 )

Todas as ruas, abençoadas
Nossa Senhora, em nossas casas
Todas as ruas, abençoadas
Nossa Senhora, em nossas casas
Todas as ruas, abençoadas
Nossa Senhora, em nossas casas
Todas as ruas, abençoadas

Clipes