busca

Desenho de Deus

Natiruts

Afinação: Padrão Baixo 5 Cordas ( B-E-A-D-G )

Riff Principal
G|------------------------------------------|
D|-----------7-----------------7-7-9-7-9-7--|
A|------7--9---7-9-7-------7-9--------------|
E|----9--------------10-10------------------|
B|-10---------------------------------------|

Refrão
G|---------------------------------------------------------------------------------|
D|---------------------------------------------------------------------------------|
A|---------------------------------------------------------------------------------|
E|-9-9---7-9-9-9-9---9-7-7---5-7-7-7-7--7-9-9---7-9-9-9-9---9-7-7---7/-12-12-12-12-|
B|-----9-----------9-------7----------7-------9-----------9-------7----------------|

Fim
G|----------------------------------------|
D|----------------------------------------|
A|-------12--------11-----10--------------|
E|-10-10----10-9-9----9-8----8-8-7-0----5-|
B|----------------------------------------|

Clipes