busca

Em Paz

Natiruts

Tom: F
C7+
Dizem que o medo e a dor
Fazem a gente aprender
G#7+
A superar como for
Um mal de amor pra valer
C7+
Verbos e sonhos se vão
Deixando a mesma impressão
G#7+
Não vale a pena viver por viver
C7+                  G#7+
Pelo seu amor, cho...rei
C7+
Pelo seu amor que essa alma se lançou
        G#7+
E o encanto bom que existe então chegou
C7+
Quer viver assim, assim tão perto de mim
  G#7+
E eu que era sozinho agora estou
   C7+
Em paz
                             F7+      G#7+
Estrela do meu céu azul renasceu   Uh Uh
   C7+
Em paz
                              F7+       G#7+
Indo do CRUZEIRO pra SUL renasceu    Uh Uh

(solo)
E|--8--10/12~--10-8~---12-13-15--11/12-11/12-------------11-8-10-----------------
B|-8-8---------------------------------------13---13~---8--8------11b13b11-8~----
G|----------------------------------------------12-------------------------------
D|-------------------------------------------------------------------------------
A|-------------------------------------------------------------------------------
E|-------------------------------------------------------------------------------

E|---------------------------------------------3---------8--10--12---15-13-12~~~~
B|-5h6h5-5--6-8-3/5-------------------4-3-3-4-6-4-3---4/8--8--8------------------
G|------7-----------5-5--5--7h5~----3----5---------5~----------------------------
D|-------------------7--7--7-------5-5-------------------------------------------
A|-------------------------------------------------------------------------------
E|-------------------------------------------------------------------------------

Clipes

Cifra Club Pro

Aproveite o Cifra Club com benefícios exclusivos e sem anúncios
7 dias grátis
Cifra Club Pro
Aproveite o Cifra Club com benefícios exclusivos e sem anúncios
7 dias grátis