busca

Espere Por Mim Morena

Natiruts

Tom: G
* Essa musica foi feita pelo Gonzaguinha, e os caras do Natiruts fizeram essa versão reggae,
  que ficou show...


Solinho da intro.:

e|-5/7--7-7-7/9---5~--5-3-3/5~---3-3--3/5--2~--2/3-3/5~---------------------
B|-7/8--8-8-8/10--7~--7-5-5/7~--5-5---5/7--3~--3/5-5/7~-------------------------
G|-----------------------------------------------------------------------------

e|-5/7--7-7-7/9---5~--5-3-3/5~---3-3--3/5--2~--2/3-3/5~---------------------
B|-7/8--8-8-8/10--7~--7-5-5/7~--5-5---5/7--3~--3/5-5/7~-------------------------
G|-----------------------------------------------------------------------------

        G7+       D7+           Em7       D7+
Tire um sono na rede.. deixe a porta encostada..
      Am7             G7+       Em7       D7+
Que o vento da madrugada, ja me leva pra voce..
       G7+     D7+           Em7          D7+
antes de acontecer.. o sol, a barra vi quebrar..
    Am7         G7+              Am7          D
Eu estarei nos seus braços para nunca mais voar..

G7+             D7+        Em7             D7+
Espere por mim morena.. espere que eu chego já..
            C7+     D7+            Am7       D
O amor por voce morena, faz a saudade apressar..
G7+             D7+        Em7             D7+
Espere por mim morena.. espere que eu chego já..
            C7+  D7+               Am7       D
O amor por voce morena, faz a saudade apressar..

        G7+     D7+           Em7     D7+
E nas noites de frio, serei teu cobretor..
 Am7             G7+       Em7       D7+
Quentarei o teu corpo.. com meu calor.. 
         G7+    D7+               Em7          D7+
óh minha santa eu juro.. juro por Deus nosso senhor.. 
    Am7         G7+              Am7          D
nunca mais minha morena.. vou fugir do seu amor.. 

G7+             D7+           Em7          D7+
Espere por mim morena.. espere que eu chego já..
            C7+     D7+              Am7        D
O amor por você morena, faz a saudade apressar..
G7+             D7+           Em7          D7+
Espere por mim morena.. espere que eu chego já..
             C7+  D7+               Am7       D
O amor por você morena, faz a saudade apressar..

>solo

        G7+       D7+           Em7       D7+
Tire um sono na rede.. deixe a porta encostada..
      Am7             G7+       Em7       D7+
Que o vento da madrugada, ja me leva pra voce..
       G7+     D7+           Em7          D7+
antes de acontecer.. o sol, a barra vi quebrar..
    Am7         G7+              Am7          D
Eu estarei nos seus braços para nunca mais voar..

G7+             D7+        Em7             D7+
Espere por mim morena.. espere que eu chego já..
            C7+     D7+            Am7       D
O amor por voce morena, faz a saudade apressar..
G7+             D7+        Em7             D7+
Espere por mim morena.. espere que eu chego já..
            C7+  D7+               Am7       D
O amor por você morena, faz a saudade apressar..

solinho do final..

e|-5/7--7-7-7/9---5~--5-3-3/5~---3-3--3/5--2~--2/3-3/5~---------------------
B|-7/8--8-8-8/10--7~--7-5-5/7~--5-5---5/7--3~--3/5-5/7~-----------------------
G|-----------------------------------------------------------------------------

e|-5/7--7-7-7/9---5~--5-3-3/5~---3-3--3/5--2~-------------------------------
B|-7/8--8-8-8/10--7~--7-5-5/7~--5-5---5/7--3~---------------------------------
G|----------------------------------------------------------------------------

Am7 - 5x555x
D7  - x5453x

*Marimari, te adoroo !

Clipes