busca

Eu e Ela / Waiting in Vain (pout-pourri)

Natiruts

Tom: D
[Intro] A7(4/9)  D7M(9)
        A7(4/9)  D7M(9)

E|---------------------------------------------------------------|
B|---15/14-12-14-15~---------------15/14-12-14-15-17-14~--10-12~-|
G|---------------------11/9-7~-----------------------------------|
D|---------------------------------------------------------------|
A|---------------------------------------------------------------|
E|---------------------------------------------------------------|

E|---------------------------------------------------------------|
B|---15/14-12-14-15~---------------15/14-12-14-15-17-14~/--------|
G|---------------------11/9-7------------------------------------|
D|----------------------------9----------------------------------|
A|---------------------------------------------------------------|
E|---------------------------------------------------------------|

A7+                   D7+
No seu pensamento sou rei
A7+                      D7+
E o certo caminho eu não sei
A7+                   D7+
Há mil formas para sorrir
A7+               D7+   (Até aqui so bate uma vez na nota e deixa soar)
Só uma para ser feliz
A7+              D7+            A7+
No espaço lancei uma canção que vai
      D7+
( uma linda canção pra mostrar )
A7+                  D7+            A7+
Força nos dreadlocks que só o tempo traz
           D7+
(Que só o tempo traz )
A7+                     D7+
O bem que ela me fez a noite toda dancei
     A7+
Se a onda não está aqui
   D7+
Talvez não possa sentir

    A7+   D7+
Eu e ela
      A7+   D7+
Eu e ela
        A7+
Só eu andei

E|-----------------------------------------|
B|----20--19-----20--19-------20--19-------|
G|----------19---------19------------19----|
D|-----------------------------------------|
A|-----------------------------------------|
E|-----------------------------------------|

   D7+
(Solidão)
        A7+
Não encontrei
    D7+
(Flor maior)
        A7+
Se amarrou
             D7+               A7+
Receba o sorriso e tudo que é bom

Aqui o solinho termina assim

E|---------------|
B|---------------|
G|-14--13---14/5-|
D|--------14-----|
A|---------------|
E|---------------|

 A7+             D7+
Dredlooks longe estão dos seus valores
A7+                D7+
Sinais dos pobres homens e suas cores
        A7+                     D7+
Mas a música que te faz ser feliz pra mim é demais
       A7+
E os segredos assim se revelarão
         D7+
E os receios só se quebram

( A7+  D7+ )
( A7+  D7+ )
( A7+  D7+ )

A7+                    D7+
I don't wanna wait in vain for your love
A7+                    D7+
I don't wanna wait in vain for your love
A7+                    D7+
I don't wanna wait in vain for your love
A7+                    D7+
I don't wanna wait in vain for your love
A7+                    D7+
I don't wanna wait in vain for your love

A7+                    D7+
I don't wanna...I don't wanna wait...I don't wanna wait

I don't wanna wait....I don't wanna wait in vain for your love

( A7(4/9)  D7M(9) )

E|---------------------------------------------------------------|
B|---15/14-12-14-15~---------------15/14-12-14-15-17-14~--10-12~-|
G|---------------------11/9-7~-----------------------------------|
D|---------------------------------------------------------------|
A|---------------------------------------------------------------|
E|---------------------------------------------------------------|

E|---------------------------------------------------------------|
B|---15/14-12-14-15~---------------15/14-12-14-15-17-14~/--------|
G|---------------------11/9-7------------------------------------|
D|----------------------------9----------------------------------|
A|---------------------------------------------------------------|
E|---------------------------------------------------------------|

Clipes

Cifra Club Pro

Aproveite o Cifra Club com benefícios exclusivos e sem anúncios
7 dias grátis
Cifra Club Pro
Aproveite o Cifra Club com benefícios exclusivos e sem anúncios
7 dias grátis