busca

Eu Quero Demais

Natiruts

[Intro]

G|-----------------------------------------------------------------------------------------------------------|
D|-----------------------------------------------------------------------------------------------------------|
A|-----------------------------------------------------------------------------------------------------------|
E|-7h8-8-8--7h8-8-8--3h4-4-4--2h3-3-3--7h8-8-8--7h8-8-8--3h4-4-4--2h3-3-3------------------------------------|

G|-----------------------------------------------------------------------------------------------------------|
D|-----------------------------------------------------------------------------------------------------------|
A|-----------------------------------------------------------------------------------------------------------|
E|-7h8-8-8--7h8-8-8--3h4-4-4--2h3-3-3--7h8-8-8--7h8-8-8--3h4-4-4--4-3----------------------------------------|

[Versos]

G|-----------------------------------------------------------------------------------------------------------|
D|-----------------------------------------------------------------------------------------------------------|  (3x)
A|-----------------------------------------------------------------------------------------------------------|
E|-8-8-8-8--8-8-8-8--8-8-8-8--8-8-8-8--4-4-4-4--4-4-4-4--4-4-4-4--4-4-4-4------------------------------------|

G|-----------------------------------------------------------------------------------------------------------|
D|-----------------------------------------------------------------------------------------------------------|
A|-----------------------------------------------------------------------------------------------------------|
E|-8-8-8-8--8-8-8-8--8-8-8-8--8-8-8-8--4-4-4-4--4-4-4-4--4-3-------------------------------------------------|

[Refrão]

G|-----------------------------------------------------------------------------------------------------------|
D|-----------------------------------------------------------------------------------------------------------|  (3x)
A|-----------------------------------------------------------------------------------------------------------|
E|-7h8-8-8--7h8-8-8--3h4-4-4--2h3-3-3--7h8-8-8--7h8-8-8--3h4-4-4--2h3-3-3------------------------------------|

G|-----------------------------------------------------------------------------------------------------------|
D|-----------------------------------------------------------------------------------------------------------|
A|-----------------------------------------------------------------------------------------------------------|
E|-7h8-8-8--7h8-8-8--3h4-4-4--2h3-3-3--7h8-8-8--7h8-8-8--3h4-4-4--4-3----8~----------------------------------|

[Versos]

G|-----------------------------------------------------------------------------------------------------------|
D|-----------------------------------------------------------------------------------------------------------|  (2x)
A|-----------------------------------------------------------------------------------------------------------|
E|-3h4-4-4--3h4-4-4--7h8-8-8--7h8-8-8------------------------------------------------------------------------|

[Versos]

G|-----------------------------------------------------------------------------------------------------------|
D|-----------------------------------------------------------------------------------------------------------|  (3x)
A|-----------------------------------------------------------------------------------------------------------|
E|-7h8-8-8--7h8-8-8--3h4-4-4--2h3-3-3--7h8-8-8--7h8-8-8--3h4-4-4--2h3-3-3------------------------------------|

[Refrão]

G|-----------------------------------------------------------------------------------------------------------|
D|-----------------------------------------------------------------------------------------------------------|
A|-----------------------------------------------------------------------------------------------------------|
E|-7h8-8-8--7h8-8-8--3h4-4-4--2h3-3-3--7h8-8-8--7h8-8-8--3h4-4-4---------------------------------------------|

[Ponte]

G|-----------------------------------------------------------------------------------------------------------|
D|-----6------6------6------6--------------------------------------------------------------------------------|
A|---6------6------6------6-------------------------------------------------------10h11-11-11-11-11----------|
E|-8------8------8------8--------8~----4~----8~----4~----8~----4~----8~----4~--3--------------------8--------|

[Versos]

G|-----------------------------------------------------------------------------------------------------------|
D|-----------------------------------------------------------------------------------------------------------|
A|-----------------------------------------------------------------------------------------------------------|
E|-7h8-8-8--3h4-4-4--2h3-3-3--7h8-8-8--7h8-8-8--3h4-4-4--2h3-3-3---------------------------------------------|

[Refrão]

G|-----------------------------------------------------------------------------------------------------------|
D|-----------------------------------------------------------------------------------------------------------|  (2x)
A|-----------------------------------------------------------------------------------------------------------|
E|-7h8-8-8--7h8-8-8--3h4-4-4--2h3-3-3--7h8-8-8--7h8-8-8--3h4-4-4--2h3-3-3------------------------------------|

G|-----------------------------------------------------------------------------------------------------------|
D|-----------------------------------------------------------------------------------------------------------|
A|-----------------------------------------------------------------------------------------------------------|
E|-7h8-8-8--7h8-8-8--3h4-4-4--2h3-3-3--7h8-8-8--7h8-8-8--3h4-4-4--4-3----8~----4~----------------------------|

Clipes