busca

Leve Com Você

Natiruts

Tom: C
 Am         F
Leve com você
 Am           F
Só o que foi bom
Am         F
Ódio e rancor
            Dm    Em
Não dão em nada, nada
Am           F
Ouço aquele som
 Am          F
Lembro de você
 Am      F
Como acabou

 Em          Dm
Mas não tem nada não
    Em                          Dm
Só guardo o que foi bom no meu coração
    Em                     F
O amor é como o sol, sabe como renascer

 Am        F
Sinto o calor
 Am           F
De mais um verão
 Am         F
Tudo ganha cor
      Em                  Dm
E de nada vai valer lamentar a dor
            Em                          Dm
Nós temos que seguir em frente, a vida não parou
           Em                        Dm
Vai ser difícil de esquecer tudo o que passou
             Em                       F            G
Mas são as quedas que ensinam a cultivar o nosso amor

 Am    Em
Pensar
            Dm  Em
No nosso futuro
 Am    Em
Pensar
            Dm  Em
No nosso futuro

     Am                         F
E|-----------------------------8--|
B|---------------5-------------8--|
G|---------------5-------------0--|
D|----7-----5h7----7----5/7----7--|
A|-------7-----------7---------8--|
E|--5-----------------------------|

 Am         F
Leve com você
 Am           F
Só o que foi bom
Am         F
Ódio e rancor
            Dm    Em
Não dão em nada, nada
Am           F
Ouço aquele som
 Am          F
Lembro de você
 Am      F
Como acabou

 Em          Dm
Mas não tem nada não
    Em                          Dm
Só guardo o que foi bom no meu coração
    Em                     F
O amor é como o sol, sabe como renascer

 Am        F
Sinto o calor
 Am           F
De mais um verão
 Am         F
Tudo ganha cor
      Em                  Dm
E de nada vai valer lamentar a dor
            Em                          Dm
Nós temos que seguir em frente, a vida não parou
           Em                        Dm
Vai ser difícil de esquecer tudo o que passou
             Em                       F            G
Mas são as quedas que ensinam a cultivar o nosso amor

 Am    Em
Pensar
            Dm  Em
No nosso futuro
 Am    Em
Pensar
            Dm  Em
No nosso futuro

     Am                         F
E|-----------------------------8-8-8-8-8-8--|
B|---------------5-------------8-8-8-8-8-8--|
G|---------------5-------------0-0-0-0-0-0--|
D|----7-----5h7----7----5/7----7-7-7-7-7-7--|
A|-------7-----------7---------8-8-8-8-8-8--|
E|--5---------------------------------------|

     Am                         F
E|-----------------------------8-8-8-8-8-8--|
B|---------------5-------------8-8-8-8-8-8--|
G|---------------5-------------0-0-0-0-0-0--|
D|----7-----5h7----7----5/7----7-7-7-7-7-7--|
A|-------7-----------7---------8-8-8-8-8-8--|
E|--5---------------------------------------|

     Am                         F
E|-----------------------------8-8-8-8-8-8--|
B|---------------5-------------8-8-8-8-8-8--|
G|---------------5-------------0-0-0-0-0-0--|
D|----7-----5h7----7----5/7----7-7-7-7-7-7--|
A|-------7-----------7---------8-8-8-8-8-8--|
E|--5---------------------------------------|

     Am                         F
E|-----------------------------8-8-8-8-8-8--|
B|---------------5-------------8-8-8-8-8-8--|
G|---------------5-------------0-0-0-0-0-0--|
D|----7-----5h7----7----5/7----7-7-7-7-7-7--|
A|-------7-----------7---------8-8-8-8-8-8--|
E|--5---------------------------------------|

Clipes

Cifra Club Pro

Aproveite o Cifra Club com benefícios exclusivos e sem anúncios
7 dias grátis
Cifra Club Pro
Aproveite o Cifra Club com benefícios exclusivos e sem anúncios
7 dias grátis