Meu Reggae É Roots

Natiruts

A#m
234
X13321
B7M
234
X24342
C#
234
X46664
D#7
1234
X6564X
D#m
1234
XX1342
F#
234
244322
G#m
34
466444
Tom: G
[Intro] F#  G#m  C#
        F#  G#m  C#

#1t1#     F#                        G#m      C#
#1t2#E|---------------------------------------------------------|
B|----14b16r14-11-------------------------14h16-14h16-14~--|
G|-11----------------13-11---------------------------------|
D|--------------------------13----13-15~-------------------|
A|---------------------------------------------------------|
E|---------------------------------------------------------|#/1t2##/1t1#

#2t1#     F#                        G#m      C#
#2t2#E|---------------------------------------------------------|
B|----14b16r14-11--11--------------------------------------|
G|-11-----------------13-11-13----11-10~-------------------|
D|---------------------------------------------------------|
A|---------------------------------------------------------|
E|---------------------------------------------------------|#/2t2##/2t1#

F#                        G#m              C#
    Meu reggae é "roots",     palavras também
D#m                           C#
    Mas o meu coração é brasileiro
B7M                               A#m
    Deixa eu aprender o que é o amor

Por mais difícil que isso seja
B7M                          A#m
    Deixa que a chuva vem lavar
           D#7
A mente de alguém que deseja
  G#m
Sair cantando por aí
    C#
Tentando sempre imaginar
    A#m
Frases estranhas para dizer
           D#7
Mensagens simples de entender
    G#m
Cantando eu mando um alô
   C#
Para você que acreditou
     A#m                         D#7
Que podia ser mais feliz vendo o outro ser feliz
     G#m                        C#            F#  G#m  C#  F#
E abrir seu coração e o seu sorriso todo para ela

( F# )

[Solo] F#  G#m  C#
       F#  G#m  C#
       F#  G#m  C#
       F#  G#m  C#

#3t1#    F#                                                 G#m
#3t2#E|----------------------------------11-13b14r13-11-------14-|
B|----14b16r14-14b16r14-14b16r14-14----------------14-14b16-|
G|-11-------------------------------------------------------|
D|----------------------------------------------------------|
A|----------------------------------------------------------|
E|----------------------------------------------------------|#/3t2##/3t1#

#4t1#            C#                   F#
#4t2#E|------------------------11----------------11-11-----11----|
B|-14b16---14-11----11-14-------------------11-11--11----11-|
G|---------------13----------13/15-13-11--------------------|
D|----------------------------------------------------------|
A|----------------------------------------------------------|
E|----------------------------------------------------------|#/4t2##/4t1#

#5t1#    G#m                  C#                      F#
#5t2#E|-14-14----14----14----14----11-13b14r13-11----------16----|
B|-14-14-14----14----14----14----------------14-14b16-------|
G|----------------------------------------------------------|
D|----------------------------------------------------------|
A|----------------------------------------------------------|
E|----------------------------------------------------------|#/5t2##/5t1#

#6t1#                                  G#m
#6t2#E|----------16-18-16-14---------------------11--------------|
B|-14b16----------------14h16-14-11---14-15-------11-12-14--|
G|---------------------------------------------15-----------|
D|----------------------------------------------------------|
A|----------------------------------------------------------|
E|----------------------------------------------------------|#/6t2##/6t1#

#7t1#     C#               F#
#7t2#E|----------------------------------------------------------|
B|-14-11----11-14------------------------------11----11-14--|
G|-------13-------13/15-13-11-----11-13--11-13----13--------|
D|-----------------------------13---------------------------|
A|----------------------------------------------------------|
E|----------------------------------------------------------|#/7t2##/7t1#

#8t1#                        G#m                   C#
#8t2#E|---------11-----11---14/16-14---12/14-12-----11-14--------|
B|--11-14------14------14/16-14---12/14-12--14--------------|
G|----------------------------------------------------------|
D|----------------------------------------------------------|
A|----------------------------------------------------------|
E|----------------------------------------------------------|#/8t2##/8t1#


#9t1##9t2#E|--16b18-16-14~--------------------------------------------|
B|----------------------------------------------------------|
G|----------------------------------------------------------|
D|----------------------------------------------------------|
A|----------------------------------------------------------|
E|----------------------------------------------------------|#/9t2##/9t1#

F#                        G#m              C#
    Meu reggae é "roots",     palavras também
D#m                           C#
    Mas o meu coração é brasileiro
B7M                               A#m
    Deixa eu aprender o que é o amor

Por mais difícil que isso seja
B7M                          A#m
    Deixa que a chuva vem lavar
           D#7
A mente de alguém que deseja
  G#m
Sair cantando por aí
    C#
Tentando sempre imaginar
    A#m
Frases estranhas para dizer
           D#7
Mensagens simples de entender
    G#m
Cantando eu mando um alô
   C#
Para você que acreditou
     A#m                         D#7
Que podia ser mais feliz vendo o outro ser feliz
     G#m                        C#            F#  G#m  C#  F#
E abrir seu coração e o seu sorriso todo para ela

[Final] F#  G#m  C#
        F#  G#m  C#

#10t1#     F#                        G#m      C#
#10t2#E|---------------------------------------------------------|
B|----14b16r14-11-------------------------14h16-14h16-14~--|
G|-11----------------13-11---------------------------------|
D|--------------------------13----13-15~-------------------|
A|---------------------------------------------------------|
E|---------------------------------------------------------|#/10t2##/10t1#

#11t1#     F#                        G#m      C#      F#
#11t2#E|---------------------------------------------------------|
B|----14b16r14-11--11--------------------------------------|
G|-11-----------------13-11-13----11-10~-------------------|
D|---------------------------------------------------------|
A|---------------------------------------------------------|
E|---------------------------------------------------------|#/11t2##/11t1#
Composição: NatirutsColaboração e revisão: Getúlio VasconcelosMauricio Bragadeivid diaspedro simoese mais 5