Um Anjo do Céu

Natiruts

B
234
X24442
B7
1234
X21202
C#m
234
X46654
E
123
022100
F#
234
244322
Tom: G
[Intro] B  F#  E  B
        B  F#  E  B

#1t1##1t2#E|-2--------------------2--------------------|
B|------0-4-0-2/4-2~---------0-4-0-2/4-0-----|
G|-------------------------------------------|
D|-------------------------------------------|
A|-------------------------------------------|
E|-------------------------------------------|#/1t2##/1t1#

#2t1##2t2#E|-2--------------------2--------------------|
B|------0-4-0-2/4-2~---------0-4-0-2/4-0-----|
G|-------------------------------------------|
D|-------------------------------------------|
A|-------------------------------------------|
E|-------------------------------------------|#/2t2##/2t1#

#3t1##3t2#E|-2--------------------2--------------------|
B|------0-4-0-2/4-2~---------0-4-0-2/4-0-----|
G|-------------------------------------------|
D|-------------------------------------------|
A|-------------------------------------------|
E|-------------------------------------------|#/3t2##/3t1#

#4t1##4t2#E|-2--------------------2--------------------|
B|------0-4-0-2/4-2~---------0-4-0-2/4-0-----|
G|-------------------------------------------|
D|-------------------------------------------|
A|-------------------------------------------|
E|-------------------------------------------|#/4t2##/4t1#

         B
Um anjo do céu

Trouxe pra mim
            C#m
É a mais bonita
        E     F#
A jóia perfeita
              B
Que é pra eu cuidar

Que é pra eu amar
            C#m
Gota cristalina
             E   F#
Tem toda inocência

 B            F#
Vem, oh! meu bem
           E
Não chore não
                B
Vou cantar pra você
 B            F#
Vem, oh! meu bem
           E
Não chore não
                B
Vou cantar pra você

#5t1##5t2#E|---------------------------------------------------|
B|-------------4-----------------4-5-4---------------|
G|-----4-------4-------------4---4-6-4---------------|
D|-4h6---6-4-6---6-4-----4h6---6---------------------|
G|---------------------------------------------------|
E|---------------------------------------------------|#/5t2##/5t1#

#6t1##6t2#E|---------------------------------------------------|
B|---------------------------------------------------|
G|-------4/6/8-6-4-6/8----6-4h6p4-6/8-6-6/8-----12---|
D|-6-4h6-------------------------------------11------|
G|---------------------------------------------------|
E|---------------------------------------------------|#/6t2##/6t1#

         B
Um anjo do céu

Que me escolheu
              C#m
Serei  o teu porto
             E   F#
Guardião da pureza

              B
Que é pra eu cuidar

que é pra eu amar
              C#m
Gota cristalina
             E    F#
Tem toda inocência

 B           F#
Vem oh! meu bem
           E
Não chore não
                B
Vou cantar pra você

 B           F#
Vem oh! meu bem
           E
Não chore não
                B
Vou cantar pra você

 B           F#
Vem oh! meu bem
           E
Não chore não
                B
Vou cantar pra você

 B            F#
Vem oh! meu bem
           E
Não chore não
                  B7
Vou cantar pra você

[Final] B  F#  E  B
        B  F#  E  B

#7t1##7t2#E|-2--------------------2--------------------|
B|------0-4-0-2/4-2~---------0-4-0-2/4-0-----|
G|-------------------------------------------|
D|-------------------------------------------|
A|-------------------------------------------|
E|-------------------------------------------|#/7t2##/7t1#

#8t1##8t2#E|-2--------------------2--------------------|
B|------0-4-0-2/4-2~---------0-4-0-2/4-0-----|
G|-------------------------------------------|
D|-------------------------------------------|
A|-------------------------------------------|
E|-------------------------------------------|#/8t2##/8t1#

#9t1##9t2#E|-2--------------------2--------------------|
B|------0-4-0-2/4-2~---------0-4-0-2/4-0-----|
G|-------------------------------------------|
D|-------------------------------------------|
A|-------------------------------------------|
E|-------------------------------------------|#/9t2##/9t1#

#10t1##10t2#E|-2--------------------2--------------------|
B|------0-4-0-2/4-2~---------0-4-0-2/4-0-----|
G|-------------------------------------------|
D|-------------------------------------------|
A|-------------------------------------------|
E|-------------------------------------------|#/10t2##/10t1#
Composição: Marcelo Vourakis / Marrara / Prata / QuimColaboração e revisão: Getúlio VasconcelosGilson Feitosafernanda pinheiroJoão Laureanoe mais 2