busca

Um Anjo do Céu

Natiruts

Tom: B
[Intro] B  F#  E  B
        B  F#  E  B

E|-2--------------------2--------------------|
B|------0-4-0-2/4-2~---------0-4-0-2/4-0-----|
G|-------------------------------------------|
D|-------------------------------------------|
A|-------------------------------------------|
E|-------------------------------------------|

E|-2--------------------2--------------------|
B|------0-4-0-2/4-2~---------0-4-0-2/4-0-----|
G|-------------------------------------------|
D|-------------------------------------------|
A|-------------------------------------------|
E|-------------------------------------------|

E|-2--------------------2--------------------|
B|------0-4-0-2/4-2~---------0-4-0-2/4-0-----|
G|-------------------------------------------|
D|-------------------------------------------|
A|-------------------------------------------|
E|-------------------------------------------|

E|-2--------------------2--------------------|
B|------0-4-0-2/4-2~---------0-4-0-2/4-0-----|
G|-------------------------------------------|
D|-------------------------------------------|
A|-------------------------------------------|
E|-------------------------------------------|

         B
Um anjo do céu

Trouxe pra mim
            C#m
É a mais bonita
        E     F#
A jóia perfeita
              B
Que é pra eu cuidar

Que é pra eu amar
            C#m
Gota cristalina
             E   F#
Tem toda inocência

 B            F#
Vem, oh! meu bem
           E
Não chore não
                B
Vou cantar pra você
 B            F#
Vem, oh! meu bem
           E
Não chore não
                B
Vou cantar pra você

E|---------------------------------------------------|
B|-------------4-----------------4-5-4---------------|
G|-----4-------4-------------4---4-6-4---------------|
D|-4h6---6-4-6---6-4-----4h6---6---------------------|
G|---------------------------------------------------|
E|---------------------------------------------------|

E|---------------------------------------------------|
B|---------------------------------------------------|
G|-------4/6/8-6-4-6/8----6-4h6p4-6/8-6-6/8-----12---|
D|-6-4h6-------------------------------------11------|
G|---------------------------------------------------|
E|---------------------------------------------------|

         B
Um anjo do céu

Que me escolheu
              C#m
Serei  o teu porto
             E   F#
Guardião da pureza

              B
Que é pra eu cuidar

que é pra eu amar
              C#m
Gota cristalina
             E    F#
Tem toda inocência

 B           F#
Vem oh! meu bem
           E
Não chore não
                B
Vou cantar pra você

 B           F#
Vem oh! meu bem
           E
Não chore não
                B
Vou cantar pra você

 B           F#
Vem oh! meu bem
           E
Não chore não
                B
Vou cantar pra você

 B            F#
Vem oh! meu bem
           E
Não chore não
                  B7
Vou cantar pra você

[Final] B  F#  E  B
        B  F#  E  B

E|-2--------------------2--------------------|
B|------0-4-0-2/4-2~---------0-4-0-2/4-0-----|
G|-------------------------------------------|
D|-------------------------------------------|
A|-------------------------------------------|
E|-------------------------------------------|

E|-2--------------------2--------------------|
B|------0-4-0-2/4-2~---------0-4-0-2/4-0-----|
G|-------------------------------------------|
D|-------------------------------------------|
A|-------------------------------------------|
E|-------------------------------------------|

E|-2--------------------2--------------------|
B|------0-4-0-2/4-2~---------0-4-0-2/4-0-----|
G|-------------------------------------------|
D|-------------------------------------------|
A|-------------------------------------------|
E|-------------------------------------------|

E|-2--------------------2--------------------|
B|------0-4-0-2/4-2~---------0-4-0-2/4-0-----|
G|-------------------------------------------|
D|-------------------------------------------|
A|-------------------------------------------|
E|-------------------------------------------|

Clipes