busca

Um Anjo do Céu

Natiruts


Intro:
G|-----------------------------------------------|
D|-----------------------------------------------|
A|-\2-2-2-------------2---0-2-2-2-------------2~-|
E|--------2-2-2-0-0-0---2---------2-2-2-0-0-0----|

Versos:
G|------------------------------------------------------------------------|
D|--------------------------------------------------------2---2-4-4-4-4---|
A|-2-----2--2-2-2-2-2-----2---2-2-2-2-4---2-4---4-4-4-4-4---2-------------|
E|---2-4--------------2-4---2-----------4-----4-------------------------2-|

Refrão:
G|-----------------------------------------------------|
D|-----------------------------------------------------|
A|-2-2-2-------------2-2---0-2-2-2-------------2-2---0-|
E|-------2-2-2-0-0-0-----2---------2-2-2-0-0-0-----2---|

Clipes