busca

Pode Crer

Natiruts

Riff 1 - começa em 00:10
G|-----------------------------------------------------------------------------------------------------------|
D|-----------------------------------------------------------------------------------------------------------|  (5x)
A|---------------------4-4--4-4------------------------------------------------------------------------------|
E|-5-5--5-5--4-4--4-4------------2-2--2-2--------------------------------------------------------------------|

Riff 2
G|-----------------------------------------------------------------------------------------------------------|
D|-----------------------------------------------------------------------------------------------------------|  (2x)
A|-----------4-4--4-4------------4-4--4-4--------------------------------------------------------------------|
E|-2-2--2-2------------5-5--5-5------------------------------------------------------------------------------|

PAUSA 01:40 - 02:19

Riff 2 - começa em 02:19
G|-----------------------------------------------------------------------------------------------------------|
D|-----------------------------------------------------------------------------------------------------------|
A|-----------4-4--4-4------------4-4--4-4--------------------------------------------------------------------|
E|-2-2--2-2------------5-5--5-5------------------------------------------------------------------------------|

Clipes