busca

Pode Ser

Natiruts

Tom: E
de: Alexandre Carlo

Intro (2 vezes - veja tablatura abaixo)

E7M        F#m7          G#m7
  Pode ser    que o amor    entre aqui
C#7(b9)             A7M
Mas mesmo assim reconheço
         G#m7
Eu não mereço seu apreço
         A7M
Eu não mereço
         G#m7
Eu não mereço seu apreço
         A7M
Eu não mereço
         G#m7
Eu não mereço seu apreço

C#m7                                              B7M
  Fecho os olhos, lembro que o sonho ainda não se perdeu
C#m7                                     B7M
  Abro os olhos e o filho de um amigo nasceu
      
E fez bem
    C#m7             F#7
A mulher é linda e a vida também
        C#m7         F#7
Mas não sei ainda se está tudo bem
   G#m7  
Talvez   seja melhor desistir
   G#m7  
Sonhei,  hoje posso conseguir
   E7M  D#m7              B7
Já dei  mil voltas pela cidade
 E7M  D#m7             B7
Achei toda força de verdade bem dentro de mim

[Intro (1 vez)]
[Repete a música toda]
[Intro (2 vezes)]

--

Tablatura:

Intro:

G|-------------------2-1---------------------
D|-----2-1---------2-----2-4-----------------
A|-2-4-----2-----4-------------3-5-3--2-4-2--
E|-----------4-------------------------------

--

|--------|---------------------------|-------------------12------
|--------|---------------------------|---12b---12b-9-12b----12b--
|--11b---|---b11--9--11b--9-9----9---|---------------------------
|--------|--------------------11-----|---------------------------
|--------|---------------------------|---------------------------
|--------|---------------------------|---------------------------


|---------12-14-14b-12------|-----------------------------------|
|---12/14--------------14---|---/12-11---------12h--------------|
|---------------------------|----------11------12h--------------|
|---------------------------|-------------13---12h--------------|
|---------------------------|-----------------------------------|
|---------------------------|-----------------------------------|


|---------------------12/14-14-12---|---------------------------|
|---/12-11-12--14/16----------------|---/12-11-12-14b-----------|
|-----------------------------------|---------------------------|
|-----------------------------------|---------------------------|
|-----------------------------------|---------------------------|
|-----------------------------------|---------------------------|


|-------------13---|--------------------------------------------|
|---/15-14-15------|--------------------------------------------|
|------------------|--------------------------------------------|
|------------------|--------------------------------------------|
|------------------|--------------------------------------------|
|------------------|--------------------------------------------|
--

Clipes

Cifra Club Pro

Aproveite o Cifra Club com benefícios exclusivos e sem anúncios
7 dias grátis
Cifra Club Pro
Aproveite o Cifra Club com benefícios exclusivos e sem anúncios
7 dias grátis