Una Vez Mas

Natiruts

A7M
123
X02120
Bbº
123
X12020
Bm7
34
X24232
C#m7
34
X46454
D7M
123
XX0222
E7(9)
1234
XX2132
F#7(9)
1234
XX4354
Tom: G
A7M        Bbº
Mais uma vez
                  Bm7
Prisioneiro da solidão
        E7(9)
E ela está chorando
A7M        Bbº
Mas eu não sei
                   Bm7
Os segredos do girassol
       E7(9)
Nem a cor do vento
A7M       Bbº
Se eu voltar
                   Bm7         E7(9)
Terei medo de prosseguir e sobrevoar o rio inteiro
A7M       Bbº               Bm7
Graças a Deus os meus olhos podem se abrir
     E7(9)
Perceber a cor do seus
D7M       F#7(9)                               Bm7        E7(9)
Diz .......que não merece nem abrir seus olhos para ver o sol
                                     C#m7
E nem andar pelas pedras seguindo a vista do mar
Bbº                               Bm7         E7(9)
Mas a tristeza que tinha em seu peito já foi embora
___

#1t1#Intro
#1t2#|-------------------|------------------------|--------------|
|-------------------|---------------12-12/14-|-15--12/14----|
|-/13---------------|-/11--11-11-14----------|-----------14-|
|------14-11--11/14-|------------------------|--------------|
|-------------------|------------------------|--------------|
|-------------------|------------------------|--------------|#/1t2##/1t1#

#2t1##2t2#|-----------------------------------------------------|
|-----------------------------------------------------|
|-/11--14-14/16--14--13--14-14/16--14-13--------------|
|-----------------------------------------14-11-11/14-|
|-----------------------------------------------------|
|-----------------------------------------------------|#/2t2##/2t1#

#3t1##3t2#|-------------------------|--------------|-------------|
|----------------12-12/14-|-17\----------|-12~~~~~-----|
|-/11--11-11-14-----------|-----14-14/16-|-11~~~~~-----|
|-------------------------|--------------|-------------|
|-------------------------|--------------|-------------|
|-------------------------|--------------|-------------|#/3t2##/3t1#

#4t1#Solo
#4t2#|---------------------------------------------|
|--------17---19(20)19p17p15\--13(14)---------|
|---14/16----------------------------14-------|
|-14-----------------------------------14-----|
|---------------------------------------------|
|---------------------------------------------|#/4t2##/4t1#

#5t1##5t2#|-------------------------------10-------------------------------------------|
|-12(13)-10-------10h12-12/14-----12b-10~------------------------------------|
|-------------11\----------------------------11-9----------------11-14-14-14-|
|-------------------------------------------------/9-7-8-7-9-9/11------------|
|----------------------------------------------------------------------------|
|----------------------------------------------------------------------------|#/5t2##/5t1#

#6t1##6t2#|-------------------------------10-12------10-12------10-12-12~--10-12--------|
|------------------10-12(14)----------12~--------12~-------------------12~-10-|
|-11p9------------------------------------------------------------------------|
|------7/9-7-7----------------------------------------------------------------|
|-----------------------------------------------------------------------------|
|-----------------------------------------------------------------------------|#/6t2##/6t1#

#7t1##7t2#|----------------------------------------------------|
|--------------------------------14-14---------------|
|-11p9-----------------14--------14-14---------------|
|------9\7-7/9-11---------16-14---------16p14--------|
|----------------------------------------------------|
|----------------------------------------------------|#/7t2##/7t1#
Composição: Alexandre CarloColaboração e revisão: Lucas MoreiraThiago AlvesLEAN PICCININIMarcio Tostes