Just a Dream

Nelly

Am
123
X02210
C
123
X32010
F
234
133211
G
123
320003
Tom: G

(intro)
    Am                F           
E|-------0-------0---------------
B|----1----1--0h1------------1---
G|---2-2--2-2-----2-------0---0-0
D|--2---2----2-----2---3-3-3---3-
A|-0------------------3-3---3----
E|-------------------1-----------
      C             G
E|----------------------------------
B|---------1----------0-----0--0----
G|------0-0-0-0--0-----0-0---0---0--
D|3----2-2---2-2--2--0--0-0---0----0
A|-3--3---------3----------2--------
E|--0---------------3---------------

--| 
--| 
--| 
--| 
2-| 
--| 


                                      Am                F           
E|------0------0-----------------
B|---------0h1----1-------1-----1
G|---2-2-2----2-2--2---------0---
D|--2-2---2------2-----3-3-3--3--
A|-0------------------3-3---3--3-
E|-------------------1-----------
                   Uh Uh Uh ...    C             G
E|------------------------------------| 
B|------1--1----------0-----0--0------| 
G|0-------0-0-0--0-----0-0---0---0----| 
D|-----2-2---2-2--2--0--0-0---0-------| 
A|-3--3---------3----------2----------| 
E|--0---------------3-----------------| 


                   Am
I was thinkin' about her

I'm thinkin' about me
                  F
I'm thinkin' about us

Where we gunna be?
         C
Open my eyes
                        G
And it was only just a dream
             Am
So i travel back down that road
              F
Will she come back?

No one knows
        C                        
And i realize, it was only just a 
   G
dream

Am
I was at the top

Now its like i'm in the basement
F
Number 1 spot

Now she find her a replacement
C
I swear now i can't take it
 G
Knowing somebody's got my baby
Am                            
And Now you aint around, baby i 
         F
can't think
I should put it down, shoulda got 
      C
that ring

Cuz i can still feel it in the air
G
See your pretty face

Run my fingers through her hair

   Am
My lover

My life
    F
My shorty

My wife
      C
She left me, i'm tied
       G
Cuz i knew that it just ain't right

                   Am
I was thinkin' about her

I'm thinkin' about me F I'm thinkin' about us Where we gunna be? C Open my eyes G And it was only just a dream Am So i travel back down that road F Will she come back? No one knows C And i realize, it was only just a G dream Am When I be ridin' man I swear I see her face at every turn F Tryna get my Usher on but I can't let it Burn C And I just hope she know she the G only one I yearn for More and more I miss her, when will I learn Am Didn't give her all my love, I guess now I got my payback F Now I'm in the club thinking all about my baby C Hey, she was so easy to love G But wait, I guess that love wasn't enough Am I'm going through it every time that I'm alone F And now I'm missing, wishing she'd pick up the phone C But she made the decision that she wanted to move on G Cause I was wrong Am I was thinkin' about her I'm thinkin' about me F I'm thinkin' about us Where we gunna be? C Open my eyes G And it was only just a dream Am So i travel back down that road F Will she come back? No one knows C And i realize, it was only just a G dream Am If you ever loved somebody put your hands up F If you ever loved somebody put your hands up C And now they're gone and you're wishing you could give them G everything Am Said if you ever loved somebody put your hands up F If you ever loved somebody put your hands up C Now they're gone and you're wishing G you could give them everything Am I was thinkin' about her I'm thinkin' about me F I'm thinkin' about us Where we gunna be? C Open my eyes G And it was only just a dream Am So i travel back down that road F Will she come back? No one knows C And i realize, it was only just a G dream Am I was thinkin' about her I'm thinkin' about me F I'm thinkin' about us Where we gunna be? C Open my eyes G And it was only just a dream Am So i travel back down that road F Will she come back? No one knows C And i realize, it was only just a G dream
Composição: Frank Romano / Jim Jonsin / Nelly / Rico LoveColaboração e revisão: DaviDouglas UgochiLaura Frajndlich