busca

Bad Girl

New York Dolls

Album:Lipstick Killers (The Mercer Street Sessions 1972)
Bassist:Arthur "Killer" Kane
Tabber:Dev Fuld

This is an awesome tune. It's kind of hard to get down because it almost sounds like his 
bass is going in and out of tune...or maybe it's just me...oh well. Have fun.

Key:
x = times a number

Intro
G:---------------------------|
D:---------------------------|
A:7-------------5------------|
E:--7-7-7-7-7-7---5-5-5-5-5-5|

Verse
G:---------------|
D:----------5-5-5|
A:7-7-7-7-7------|
E:---------------|

End of verse
G:-----------------------------------------|
D:-----------------------------------------|
A:7-7-8-8-9-9-10-10-11-11-12-12-13-13-14-14|
E:-----------------------------------------|

"Whoa bad girl..."
G:--------|----|---------------------------|
D:--------|----|---------------------------|
A:0x28-0-0|7x32|7-------------5------------|
E:--------|----|--7-7-7-7-7-7---5-5-5-5-5-5|

Solo
G:---------------|
D:----5-5-6-6-7-7|
A:7-7------------|
E:---------------|

That's it. It's pretty simple, once you get the hang of it. All you gotta do is figure out 
the order. Any questions or comments, e-mail me at *

Clipes

Cifra Club Pro

Aproveite o Cifra Club com benefícios exclusivos e sem anúncios
7 dias grátis
Cifra Club Pro
Aproveite o Cifra Club com benefícios exclusivos e sem anúncios
7 dias grátis