busca

Jet Boy

New York Dolls

Tom: G
to learn this intro riff and it took me awhile to get it down. I don't know the solo but 
else is here. Enjoy!

Intro Riff & Verse

e|---------------|--2--2-2-----------|
B|--5-5-----5-5--|--3--3-3---0--0----|
G|--5-5-----5—5--|--2--2-2---0--0----|
D|--5-5--7--5-5--|--0--0-0---0--0----|
A|-------7-------|-----------2--2----|
E|---------------|-----------3--3----|

Chorus

A
Jet boys fly
G
Jet boys gone
A                G
Jet boy stole my baby

  Thunders
e|----------------------|----------------------|
B|----------------------|----------------------|
G|----------------------|--0-0--0-0--0-0--0-0--|
D|--2-2--4-2--2-2--4-2--|--0-0--2-0--0-0--2-0--|
A|--0-0--0-0--0-0--0-0--|--x-x--x-x--x-x--x-x--|
E|----------------------|--3-3--3-3--3-3--3-3--|

  Sylvain
e|----------------------|----------------------|
B|----------------------|----------------------|
G|----------------------|----------------------|
D|----------------------|----------------------|
A|--7-7--9-7--7-7--9-7--|--5-5--7-5--5-5--7-5--|
E|--5-5--5-5--5-5--5-5--|--3-3--3-3--3-3--3-3--|


A                     G
Flyin around New York City so high
A              G
Like he was my baby

Solo Chords

A C

That's basically it for the song. Just play the intro riff and the chorus blues riff and 
it. For comments or questions email me: *

Done on (2-23-2007)

Clipes

Cifra Club Pro

Aproveite o Cifra Club com benefícios exclusivos e sem anúncios
7 dias grátis
Cifra Club Pro
Aproveite o Cifra Club com benefícios exclusivos e sem anúncios
7 dias grátis