busca

Pills

New York Dolls

Tom: E
standard tuning.


e----------------------------------------------------------------|
B----------------------------------------------------------------|
G-------------------2--2-------2-----------------------44444444--|
D--2-2-------2------2--2-------2-----2-2-------2-------44444444--|
A--2-2-------2------0--0--3-4--0--4--2-2-------2-------22222222--|
E--0-0--3-4--0--4--------------------0-0--3-4--0--4--------------|

e-------------------------------------------------------|
B-------------------------------------------------------|
G---------------------2-2-------2-----4444444444444444--|
D-2-2-------2---------2-2-------2-----4444444444444444--|
A-2-2-------2---------0-0--3-4--0--4--2222222222222222--|
E-0-0--3-4--0--4----------------------------------------|

That's basically the whole song, if you listen, he slides some notes up and down the 
but nothing important, he just screws around.

For the little solo, it starts with
e-12--------|
B-12--------|
G-14^bend---| and then just mess around with the pentatonic scale, with some bends.

Clipes

Cifra Club Pro

Aproveite o Cifra Club com benefícios exclusivos e sem anúncios
7 dias grátis
Cifra Club Pro
Aproveite o Cifra Club com benefícios exclusivos e sem anúncios
7 dias grátis