busca

Puss N Boots

New York Dolls

Album:Too Much Too Soon
Bassist:Arthur "Killer" Kane
Tabber:Dev Fuld

I recieved a request for this song, and it's a killer tune. It's pretty easy, so you 
have no problems. Timing may be difficult to figure out, so just listen to the song and 
be fine.

Key:
* = Let it ring
/ = Slide up
> = Slide down
x = Times a number

*Intro (No Bass)*

Verse
G:---------|---------|---------|---------|---------|---------|
D:---------|---------|---------|---------|---------|---------|
A:3--3-3--3|3--3-3--3|3--3-3--3|3--3-3--3|3--3-3--3|3--3-3--3|
E:---------|---------|---------|---------|---------|---------|

G:---------|-------------|
D:---------|-------------|
A:3--3-3--3|3--3-1*-0*---|
E:---------|-----------3*|

Chorus
G:-----------------------------------------------------|
D:-----------------------------------------------------|
A:------------------------------------------------3/15>|
E:1--1-1-1-1*--1--1-1-1-1*--3--3-3-3-3*--3--3-3-3------|

G:----------|----------|----------|----------|
D:----------|----------|----------|----------|
A:3--3-3-3-3|3--3-3-3-3|3--3-3-3-3|3--3-3-3-3|
E:----------|----------|----------|----------|

Verse

Chorus

Bridge
G:--------------------------|---------|----------|---------|
D:------------3*------------|---------|----------|---------|
A:---------3*-----3--3-3-3-3|---------|3--3-3-3-3|---------|
E:0x16-1x9------------------|3--3-3--3|----------|3--3-3--3|

Solo
G:---------|---------|----------|-----5-3------|----------|
D:---------|---------|----------|---------5-3--|-----1*---|
A:3--3-3--3|3--3-3--3|3--3-1-1-3|3--3---------5|3--3-----3|
E:---------|---------|----------|--------------|----------|

G:--------------|--------------|-------------|
D:--------------|-----1---1-3-1|-------------|
A:3--3-1*-0*----|3--3---3------|3--3-1*-0*---|
E:-----------3-1|--------------|-----------3*|

Chorus

Bridge

Verse

Chorus

Bridge 2
G:--------------------------|---------|----------|---------|
D:------------3*------------|---------|----------|---------|
A:---------3*-----3--3-3-3-3|---------|3--3-3-3-3|---------|
E:0x16-1x9------------------|3--3-3--3|----------|3--3-3--3|

G:----------|---------|----------|---------|
D:----------|---------|----------|---------|
A:3--3-3-3-3|---------|3--3-3-3-3|---------|
E:----------|3--3-3--3|----------|3--3-3--3|

G:----------|---------|----------|---------|
D:----------|---------|----------|---------|
A:3--3-3-3-3|---------|3--3-3-3-3|---------|
E:----------|3--3-3--3|----------|3--3-3--3|

Verse

End
G:----------------------------------------|
D:----------------------------------------|
A:----------------------------------------|
E:1--1-1-1-1*--1--1-1-1-1*--3--3-3-3-3*--3|

There ya go! Like I said, pretty easy tune, so play it with attitude. I already put it 
order, and everything. Any questions or comments, e-mail me at *

Clipes