busca

About a Girl

Nirvana

Tom: D
[Intro] Em  G (8x)

[Primeira Parte]

Em G      Em      G
I need an easy friend
   Em    G      Em      G
I do... with an ear to lend
   Em     G        Em        G
I do... think you fit this shoe
   Em    G         Em      G
I do... won't you have a clue

[Segunda Parte]

C#m       G#     F#
    I'll take advantage while
 C#m G#     F#
You hang me out to dry
    E5                A5   C5
But I can't see you every night
  Em G
Free
Em G    Em  G  Em  G 
     I do

[Terceira Parte]

Em    G      Em       G
I'm standing in your line
   Em    G        Em       G
I do... hope you have the time
   Em    G      Em      G
I do... pick a number two
   Em    G      Em        G
I do... keep a date with you

[Segunda Parte]

C#m       G#     F#
    I'll take advantage while
 C#m G#     F#
You hang me out to dry
    E5                A5   C5
But I can't see you every night
  Em G
Free
Em G    Em  G  Em  G 
     I do

[Solo] Em  G (8x)
 
E|---------------------------------------------------|
B|---------------------------------------------------|
G|---------7/9---9------12----12---------------------|
D|-----5-7-7/9-9---9/12----12------------------------|
A|-5h7-----------------------------------------------|
E|---------------------------------------------------|

E|---------------------------------------------------|
B|---------------------------------------------------|
G|---------7/9---9------12----12---------------------|
D|-----5-7-7/9-9---9/12----12------------------------|
A|-5h7-----------------------------------------------|
E|---------------------------------------------------|

E|---------------------------------------------------|
B|---------------------------------------------------|
G|---------7/9---9------12----12---------------------|
D|-----5-7-7/9-9---9/12----12------------------------|
A|-5h7-----------------------------------------------|
E|---------------------------------------------------|

E|---------------------------------------------------|
B|---------------------------------------------------|
G|---------7/9---9------12----12---------------------|
D|-----5-7-7/9-9---9/12----12------------------------|
A|-5h7-----------------------------------------------|
E|---------------------------------------------------|

( C#5  G#5  F#5 )
( C#5  G#5  F#5 )
( E5  A5  C5 )
( E5  G5 )
( E5  G5 )
( E5  G5 )
( E5  G5 )

[Primeira Parte]

Em G      Em      G
I need an easy friend
   Em    G      Em      G
I do... with an ear to lend
   Em     G        Em        G
I do... think you fit this shoe
   Em    G         Em      G
I do... won't you have a clue

[Segunda Parte]

C#m       G#     F#
    I'll take advantage while
 C#m G#     F#
You hang me out to dry
    E5                A5   C5
But I can't see you every night
    E5                A5   C5
But I can't see you every night
  Em G
Free
   E5  G5  E5  G5
I do
   E5  G5  E5  G5
I do
   E5  G5  E5  G5
I do
   E5
I do

Clipes