busca

All Apologies

Nirvana

Tom: D
Afinação: Db Ab Db Gb Bb Eb

[Intro]

[Riff]

Parte 1 de 2
E|------------------------------------------|
B|------------------------------3-3-1-0-----|
G|-----0---2-2-0------------0---------------|
D|---4---4-------4--------4---4-------------|
A|------------------------------------------|
E|-0--------------------0-------------------|

Parte 2 de 2
E|------------------------------2-2-0-------|
B|------------------------------------3-----|
G|-----0---2-2-0------------0---------------|
D|---4---4-------4--------4---4-------------|
A|------------------------------------------|
E|-0--------------------0-------------------|

[Primeira Parte]

[Riff]

Parte 1 de 2
E|------------------------------------------|
B|------------------------------3-3-1-0-----|
G|-----0---2-2-0------------0---------------|
D|---4---4-------4--------4---4-------------|
A|------------------------------------------|
E|-0--------------------0-------------------|

Parte 2 de 2
E|------------------------------2-2-0-------|
B|------------------------------------3-----|
G|-----0---2-2-0------------0---------------|
D|---4---4-------4--------4---4-------------|
A|------------------------------------------|
E|-0--------------------0-------------------|

What else should I be, all apologies
What else should I say, everyone is gay
What else could I write, I don't have the right
What else should I be, all apologies

[Refrão]

G6
In my sun
In my sun I feel as one
In my sun
In my sun
 A5(9)
Married
Buried

[Segunda Parte]

[Riff]

Parte 1 de 2
E|------------------------------------------|
B|------------------------------3-3-1-0-----|
G|-----0---2-2-0------------0---------------|
D|---4---4-------4--------4---4-------------|
A|------------------------------------------|
E|-0--------------------0-------------------|

Parte 2 de 2
E|------------------------------2-2-0-------|
B|------------------------------------3-----|
G|-----0---2-2-0------------0---------------|
D|---4---4-------4--------4---4-------------|
A|------------------------------------------|
E|-0--------------------0-------------------|

I wish I was like you, easily amused
Find my nest of salt, everything is my fault
I'll take all the blame, aqua sea foam shame
Sunburn with freeze burn, choking on the ashes of her enemy

[Refrão]

G6
In my sun
In my sun I feel as one
In my sun
In my sun
 A5(9)
Married
Buried  
 A5(9)
Married
Buried

[Riff]

Parte 1 de 2
E|------------------------------------------|
B|------------------------------3-3-1-0-----|
G|-----0---2-2-0------------0---------------|
D|---4---4-------4--------4---4-------------|
A|------------------------------------------|
E|-0--------------------0-------------------|

Parte 2 de 2
E|------------------------------2-2-0-------|
B|------------------------------------3-----|
G|-----0---2-2-0------------0---------------|
D|---4---4-------4--------4---4-------------|
A|------------------------------------------|
E|-0--------------------0-------------------|

All alone is all we all are

Clipes

Cifra Club Pro

Aproveite o Cifra Club com benefícios exclusivos e sem anúncios
7 dias grátis
Cifra Club Pro
Aproveite o Cifra Club com benefícios exclusivos e sem anúncios
7 dias grátis