busca

Aneurysm

Nirvana

Tom: F#
[Introdução] F#  C  B  A (2x)

[Riff 1]
E|-----------------------------------------------------|
B|-0-0-0...--0-0-0...--0-0-0...--0-0-0-----------------|
G|-3-3-3.../-4-4-4.../-5-5-5.../-6-6-6.../-.../--------|
D|-----------------------------------------------------|
A|-----------------------------------------------------|
E|-----------------------------------------------------|

( F#5  C5  B5  A5 ) (8x)

[Riff 1]
E|-----------------------------------------------------|
B|-0-0-0...--0-0-0...--0-0-0...--0-0-0-----------------|
G|-3-3-3.../-4-4-4.../-5-5-5.../-6-6-6.../-.../--------|
D|-----------------------------------------------------|
A|-----------------------------------------------------|
E|-----------------------------------------------------|

[Primeira Parte]
( B4  D5 )  (2x)

B4                               D5
   Come on over and do the twist
B4                           D5
   Over-do it and have a fit
B4                                    D5
   Love you so much, it makes me sick
B4                               D5
   Come on over and do the twist


[Refrão]

E|------------------------------------------|
B|------------------------------------------|
G|------------------------------------------|
D|-4-4--6--7-7-7-7--8--9-9-9--8--7-7-7------|
A|-4-4--6--7-7-7-7--8--9-9-9--8--7-7-7--0---|
E|-2-2--4--5-5-5-5--6--7-7-7--6--5-5-5--0---|

Beat me outta me (beat it, beat it)

[Segunda Parte]

B4                               D5
   Come on over and do the twist
B4                           D5
   Over-do it and have a fit
B4                                    D5
   Love you so much, it makes me sick
B4                                 D5
   Come on over and shoot the shit


[Refrão]
E|------------------------------------------|
B|------------------------------------------|
G|------------------------------------------|
D|-4-4--6--7-7-7-7--8--9-9-9--8--7-7-7------|
A|-4-4--6--7-7-7-7--8--9-9-9--8--7-7-7--0---|
E|-2-2--4--5-5-5-5--6--7-7-7--6--5-5-5--0---|

Beat me outta me (beat it, beat it)

[Interlúdio] 

[Riff 1]
E|-----------------------------------------------------|
B|-0-0-0...--0-0-0...--0-0-0...--0-0-0-----------------|
G|-3-3-3.../-4-4-4.../-5-5-5.../-6-6-6.../-.../--------|
D|-----------------------------------------------------|
A|-----------------------------------------------------|
E|-----------------------------------------------------|

[Final] F#5  C5  B5  A5 (2x)

F#5   C5          B5        A5           F#5
    She keeps it pumping straight to my heart
  C5          B5        A5           F#5
She keeps it pumping straight to my heart
  C5          B5        A5           F#5
She keeps it pumping straight to my heart
  C5          B5        A5           F#5
She keeps it pumping straight to my heart
  C5          B5        A5           F#5
She keeps it pumping straight to my heart
  C5          B5        A5           F#5
She keeps it pumping straight to my heart
  C5          B5        A5           F#5
She keeps it pumping straight to my heart
  C5          B5        A5           F#5
She keeps it pumping straight to my heart

[Riff 1]
E|-----------------------------------------------------|
B|-0-0-0...--0-0-0...--0-0-0...--0-0-0-----------------|
G|-3-3-3.../-4-4-4.../-5-5-5.../-6-6-6.../-.../--------|
D|-----------------------------------------------------|
A|-----------------------------------------------------|
E|-----------------------------------------------------|

Clipes

Cifra Club Pro

Aproveite o Cifra Club com benefícios exclusivos e sem anúncios
Cifra Club Pro
Aproveite o Cifra Club com benefícios exclusivos e sem anúncios