busca

Bleach

Nirvana

(intro 4x)
|---------------|
|---------------|
|---------------|
|-0-3-5-6-6-5-3-| 

(verso)
|---------------------------|
|---------------------------|
|---------------------------|
|-(0)-0-3-5-6-6-5-3-0-5-5-3-| 

(refrão)
|------------------------|
|------------------------|
|------------------------|
|-3-5--5-5-3--3-5--5-3-6-|

(outro)
|--------------|
|--------------|
|--------------|
|-0-3-5-6-6--0-|

Clipes