busca

Blew

Nirvana

Tom: C
(intro)

G|-----------------|
D|-----------------|4x
A|-----------------|
D|-0--3-5/6--6--5--|

E|-------------------------------|----------------------------|
B|-------------------------------|----------------------------|
G|-------------------------------|----------------------------|
D|-0-3-5/6--6--5--3-3-0-3/5-3/5-0|-0-3-5/6--6--5-3-3-0-3/5-3/5|
A|-0-3-5/6--6--5--3-3-0-3/5-3/5-0|-0-3-5/6--6--5-3-3-0-3/5-3/5|
D|-0-3-5/6--6--5--3-3-0-3/5-3/5-0|-0-3-5/6--6--5-3-3-0-3/5-3/5|

(verse riff)
1|----------------------------------|----------------6----|
2|----6--8--9--9--9--8--6--8--8--6--|--8p--6h--8--8-------|
3|-7--------------------------------|---------------------|
4|----------------------------------|---------------------|
5|----------------------------------|---------------------|
6|----------------------------------|---------------------|
Oh if you...

(chorus)
1|--------------------------|   |----------------------------|
2|--------------------------|   |----------------------------|
3|--------------------------|   |----------------------------|
4|--------------------------|   |----------------------------|
5|-0-3-3-5-3|-3-0-3-3-5-3/6-|   |7-7-7-7-7-7-----------------|
6|-0-3-3-5-3|-3-0-3-3-5-3/6-|4X |7-7-7-7-7-7-----------------|
Is There  another...                ...Shame!!!

E|------------------------------------------------------
B|------------------------------------------------------
G|------------------------------------------------------
D|------------------------------------------------------
A|0-3-5/6--6--5--0--3-5/6-6-5--0-3-5/6-6-5--0-3-5/6-5-3~
D|0-3-5/6--6--5--0--3-5/6-6-5--0-3-5/6-6-5--0-3-5/6-5-3~

If you wouldn't mind I would like to blew
If you wouldn't mind I would like to loose
If you wouldn't care I would like to leave
If you wouldn't mind I would Like to breathe

Is there another reason for your stain?
Could you believe who we knew stress or strain?
Here is another word that rhymes with shame
You could do anything

Clipes