busca

Breed

Nirvana

Tom: E
[Intro]

E|--------------|--------------|
B|--------------|--------------|
G|--------------|--------------|
D|-4-4-4-4-7b-2-|-4-4-4-4-7b---|
A|-4-4-4-4-7b-2-|-4-4-4-4-7b---|
E|-2-2-0-2-5b-0-|-2-2-0-2-5b-0-|

Verse 1
E|------------------------------------------|
B|------------------------------------------|
G|-11-11-11-11-11-11--11-11--11-11-11-------|
D|------------------------------------10b---|
A|-9--9--9--9--9--9---9--9---9--9--9--------|
E|------------------------------------------|

(Verse 1)     (Verse 1)
I don't care, I don't care
(Verse 1)     (Verse 1)
I don't care, I don't care
(Verse 1)
I don't care

Care if I'm old
(Verse 1)     (Verse 1)
I don't mind, I don't mind
(Verse 1)     (Verse 1)
I don't mind, I don't mind
(Verse 1)
I don't mind

If I don't have a mind
(Verse 1) (Verse 1)
Get away, Get away
(Verse 1) (Verse 1)
Get away, Get away
(Verse 1)
Get away

Way from your home

Verse 2
E|---------------------------------------------------|
B|---------------------------------------------------|
G|-11-11-11-11-11-11--11-11--11-11-11----------------|
D|-------------------------------------4-4-4-4-4-4-4-|
A|-9--9--9--9--9--9---9--9---9--9--9---4-4-4-4-4-4-4-|
E|-------------------------------------2-2-2-2-2-2-2-|

(Verse 2)   (Verse 2)
I'm afraid, I'm afraid
(Verse 2)   (Verse 2)
I'm afraid, I'm afraid
(Verse 2)
I'm afraid

Of a ghost 

D            A
Even if you have
C5           B5
Even if you need
D                 A
I don't mean to stare
 C5                B5
We don't have to breed
 D                A
We could plant a house
 C5                B5
We could build a tree
D             A
I don't even care
 C5                  B5
We could have all three
  
Riff 1
E|--------------|--------------|
B|--------------|--------------|
G|--------------|--------------|
D|-4-4----------|-4-4----------|
A|-4-4----------|-4-4----------|
E|-2-2-0-2-5b-0-|-2-2-0-2-5b-0-|

    (Riff 1)  (Riff 1)
She said, She said
    (Riff 1)  (Riff 1)
She said, She said
    (Riff 1)  (Riff 1)
She said, She said
    (Riff 1)  (Riff 1)
She said, She said

Verse 1
E|------------------------------------------|
B|------------------------------------------|
G|-11-11-11-11-11-11--11-11--11-11-11-------|
D|------------------------------------10b---|
A|-9--9--9--9--9--9---9--9---9--9--9--------|
E|------------------------------------------|

(Verse 1)     (Verse 1)
I don't care, I don't care
(Verse 1)     (Verse 1)
I don't care, I don't care
(Verse 1)
I don't care

Care if I'm old
(Verse 1)     (Verse 1)
I don't mind, I don't mind
(Verse 1)     (Verse 1)
I don't mind, I don't mind
(Verse 1)
I don't mind

If I don't have a mind
(Verse 1) (Verse 1)
Get away, Get away
(Verse 1) (Verse 1)
Get away, Get away
(Verse 1)
Get away

Way from your home

Verse 2
E|---------------------------------------------------|
B|---------------------------------------------------|
G|-11-11-11-11-11-11--11-11--11-11-11----------------|
D|-------------------------------------4-4-4-4-4-4-4-|
A|-9--9--9--9--9--9---9--9---9--9--9---4-4-4-4-4-4-4-|
E|-------------------------------------2-2-2-2-2-2-2-|

(Verse 2)   (Verse 2)
I'm afraid, I'm afraid
(Verse 2)   (Verse 2)
I'm afraid, I'm afraid
(Verse 2)
I'm afraid

Of a ghost

D            A
Even if you have
C5           B5
Even if you need
D                 A
I don't mean to stare
 C5                B5
We don't have to breed
 D                A
We could plant a house
 C5                B5
We could build a tree
D             A
I don't even care
 C5                  B5
We could have all three
  
Riff 1
E|--------------|--------------|
B|--------------|--------------|
G|--------------|--------------|
D|-4-4----------|-4-4----------|
A|-4-4----------|-4-4----------|
E|-2-2-0-2-5b-0-|-2-2-0-2-5b-0-|

    (Riff 1)  (Riff 1)
She said, She said
    (Riff 1)  (Riff 1)
She said, She said
    (Riff 1)  (Riff 1)
She said, She said
    (Riff 1)  (Riff 1)
She said, She said

[Solo]
E|--------------------------------------------------------------------|
B|--------------------------------------------------------------------|
G|-11...-10-9-7/14...-13-12-12/17...-16-15-14/19...-20...-21...-22...-|
D|--------------------------------------------------------------------|
A|-9...--8--7-5/12...-11-10-10/15...-14-13-12/17...-18...-19...-20...-|
E|--------------------------------------------------------------------|

D            A
Even if you have
C5           B5
Even if you need
D                 A
I don't mean to stare
 C5                B5
We don't have to breed
 D                A
We could plant a house
 C5                B5
We could build a tree
D             A
I don't even care
 C5                  B5
We could have all three
  
Riff 1
E|--------------|--------------|
B|--------------|--------------|
G|--------------|--------------|
D|-4-4----------|-4-4----------|
A|-4-4----------|-4-4----------|
E|-2-2-0-2-5b-0-|-2-2-0-2-5b-0-|

    (Riff 1)  (Riff 1)
She said, She said
    (Riff 1)  (Riff 1)
She said, She said
    (Riff 1)  (Riff 1)
She said, She said
    (Riff 1)  (Riff 1)
She said, She said

She said. Good!

Clipes

Cifra Club Pro

Aproveite o Cifra Club com benefícios exclusivos e sem anúncios
Cifra Club Pro
Aproveite o Cifra Club com benefícios exclusivos e sem anúncios