Breed

Nirvana

A
123
X02220
B5
134
X244XX
C5
134
X355XX
D
123
XX0232
Tom: G
[Intro]

#1t1##1t2#E|--------------|--------------|
B|--------------|--------------|
G|--------------|--------------|
D|-4-4-4-4-7b-2-|-4-4-4-4-7b---|
A|-4-4-4-4-7b-2-|-4-4-4-4-7b---|
E|-2-2-0-2-5b-0-|-2-2-0-2-5b-0-|#/1t2##/1t1#

#2t1#Verse 1
#2t2#E|------------------------------------------|
B|------------------------------------------|
G|-11-11-11-11-11-11--11-11--11-11-11-------|
D|------------------------------------10b---|
A|-9--9--9--9--9--9---9--9---9--9--9--------|
E|------------------------------------------|#/2t2##/2t1#

(Verse 1)     (Verse 1)
I don't care, I don't care
(Verse 1)     (Verse 1)
I don't care, I don't care
(Verse 1)
I don't care

Care if I'm old
(Verse 1)     (Verse 1)
I don't mind, I don't mind
(Verse 1)     (Verse 1)
I don't mind, I don't mind
(Verse 1)
I don't mind

If I don't have a mind
(Verse 1) (Verse 1)
Get away, Get away
(Verse 1) (Verse 1)
Get away, Get away
(Verse 1)
Get away

Way from your home

#3t1#Verse 2
#3t2#E|---------------------------------------------------|
B|---------------------------------------------------|
G|-11-11-11-11-11-11--11-11--11-11-11----------------|
D|-------------------------------------4-4-4-4-4-4-4-|
A|-9--9--9--9--9--9---9--9---9--9--9---4-4-4-4-4-4-4-|
E|-------------------------------------2-2-2-2-2-2-2-|#/3t2##/3t1#

(Verse 2)   (Verse 2)
I'm afraid, I'm afraid
(Verse 2)   (Verse 2)
I'm afraid, I'm afraid
(Verse 2)
I'm afraid

Of a ghost 

D            A
Even if you have
C5           B5
Even if you need
D                 A
I don't mean to stare
 C5                B5
We don't have to breed
 D                A
We could plant a house
 C5                B5
We could build a tree
D             A
I don't even care
 C5                  B5
We could have all three
  
#4t1#Riff 1
#4t2#E|--------------|--------------|
B|--------------|--------------|
G|--------------|--------------|
D|-4-4----------|-4-4----------|
A|-4-4----------|-4-4----------|
E|-2-2-0-2-5b-0-|-2-2-0-2-5b-0-|#/4t2##/4t1#

    (Riff 1)  (Riff 1)
She said, She said
    (Riff 1)  (Riff 1)
She said, She said
    (Riff 1)  (Riff 1)
She said, She said
    (Riff 1)  (Riff 1)
She said, She said

#5t1#Verse 1
#5t2#E|------------------------------------------|
B|------------------------------------------|
G|-11-11-11-11-11-11--11-11--11-11-11-------|
D|------------------------------------10b---|
A|-9--9--9--9--9--9---9--9---9--9--9--------|
E|------------------------------------------|#/5t2##/5t1#

(Verse 1)     (Verse 1)
I don't care, I don't care
(Verse 1)     (Verse 1)
I don't care, I don't care
(Verse 1)
I don't care

Care if I'm old
(Verse 1)     (Verse 1)
I don't mind, I don't mind
(Verse 1)     (Verse 1)
I don't mind, I don't mind
(Verse 1)
I don't mind

If I don't have a mind
(Verse 1) (Verse 1)
Get away, Get away
(Verse 1) (Verse 1)
Get away, Get away
(Verse 1)
Get away

Way from your home

#6t1#Verse 2
#6t2#E|---------------------------------------------------|
B|---------------------------------------------------|
G|-11-11-11-11-11-11--11-11--11-11-11----------------|
D|-------------------------------------4-4-4-4-4-4-4-|
A|-9--9--9--9--9--9---9--9---9--9--9---4-4-4-4-4-4-4-|
E|-------------------------------------2-2-2-2-2-2-2-|#/6t2##/6t1#

(Verse 2)   (Verse 2)
I'm afraid, I'm afraid
(Verse 2)   (Verse 2)
I'm afraid, I'm afraid
(Verse 2)
I'm afraid

Of a ghost

D            A
Even if you have
C5           B5
Even if you need
D                 A
I don't mean to stare
 C5                B5
We don't have to breed
 D                A
We could plant a house
 C5                B5
We could build a tree
D             A
I don't even care
 C5                  B5
We could have all three
  
#7t1#Riff 1
#7t2#E|--------------|--------------|
B|--------------|--------------|
G|--------------|--------------|
D|-4-4----------|-4-4----------|
A|-4-4----------|-4-4----------|
E|-2-2-0-2-5b-0-|-2-2-0-2-5b-0-|#/7t2##/7t1#

    (Riff 1)  (Riff 1)
She said, She said
    (Riff 1)  (Riff 1)
She said, She said
    (Riff 1)  (Riff 1)
She said, She said
    (Riff 1)  (Riff 1)
She said, She said

#8t1#[Solo]
#8t2#E|--------------------------------------------------------------------|
B|--------------------------------------------------------------------|
G|-11...-10-9-7/14...-13-12-12/17...-16-15-14/19...-20...-21...-22...-|
D|--------------------------------------------------------------------|
A|-9...--8--7-5/12...-11-10-10/15...-14-13-12/17...-18...-19...-20...-|
E|--------------------------------------------------------------------|#/8t2##/8t1#

D            A
Even if you have
C5           B5
Even if you need
D                 A
I don't mean to stare
 C5                B5
We don't have to breed
 D                A
We could plant a house
 C5                B5
We could build a tree
D             A
I don't even care
 C5                  B5
We could have all three
  
#9t1#Riff 1
#9t2#E|--------------|--------------|
B|--------------|--------------|
G|--------------|--------------|
D|-4-4----------|-4-4----------|
A|-4-4----------|-4-4----------|
E|-2-2-0-2-5b-0-|-2-2-0-2-5b-0-|#/9t2##/9t1#

    (Riff 1)  (Riff 1)
She said, She said
    (Riff 1)  (Riff 1)
She said, She said
    (Riff 1)  (Riff 1)
She said, She said
    (Riff 1)  (Riff 1)
She said, She said

She said. Good!
Composição: Dave Grohl / Krist Novoselic / Kurt CobainColaboração e revisão: Lucas KappaunLeandro DamascenoBrenno PereiraFelipe Nunes