Breed

Nirvana

Principal
A5
12
X022XX
B5
134
X244XX
C5
134
X355XX
D5
134
X577XX
E5
12
022XXX
F#5
134
244XXX
Tom: G
Tuning: normal (E A D G B e)
Chords:
F#5 : 244xxx
E5  : 022xxx
A5  : 577xxx
A5* : x022xx
B5  : x244xx
D5  : x577xx


#1t1#LISTEN TO THE CD FOR THE TIMING.
#1t2#-----------------------------------------------------------------------------#/1t2##/1t1#
#2t1#                                The Tab
#2t2#-----------------------------------------------------------------------------#/2t2##/2t1#
::GUITAR FEEDBACK::



#3t1#::INTRO/RIFF 1::
   F#5  E5  F#5  A5  E5
#3t2#|-----------------------|-
|-----------------------|-
|-----------------------|-    REPEAT 16 TIMES
|-4-4---2---4---/7---2--|-
|-4-4---2---4---/7---2--|-
|-2-2---0---2---/5---0--|-#/3t2##/3t1#



::VERSE 1(rough timing; just pick the string fast)::
 I dont care,i dont care,i dont care,i dont care,i dont care, care if im old
#4t1##4t2#|--------------------------------------------------------------------------|-
|--------------------------------------------------------------------------|-
|--------------------------------------------------------------------------|-
|11-11-11-11-11-11-11-11-11-11-11-11-11-11-11-11-11-11-11-11-11-11-11-11-9~|-
|--------------------------------------------------------------------------|-
|--------------------------------------------------------------------------|-#/4t2##/4t1#

#5t1#I don't mind, I don't mind, I don't mind, I don't mind, I don't mind, mind
#5t2#|--------------------------------------------------------------------------|-
|--------------------------------------------------------------------------|-
|--------------------------------------------------------------------------|-
|11-11-11-11-11-11-11-11-11-11-11-11-11-11-11-11-11-11-11-11-11-11-11-11-9~|-
|--------------------------------------------------------------------------|-
|--------------------------------------------------------------------------|-| if I don't have a mind. |
|-------------------------|-
|-------------------------|-
|-------------------------|-
|11-11-11-11-11-11--9~~~--|-
|-------------------------|-
|-------------------------|-#/5t2##/5t1#

#6t1#Get away, get away, get away, get away, way, way from your house.
#6t2#|--------------------------------------------------------------------|-
|--------------------------------------------------------------------|-
|--------------------------------------------------------------------|-
|11-11-11-11-11-11-11-11-11-11-11-11-11-11-11-11-11-11-11--9~~~~-----|-
|--------------------------------------------------------------------|-
|--------------------------------------------------------------------|-#/6t2##/6t1#

 
#7t1#Im afraid, im afraid, im afraid, im afraid, afraid ghost___________
#7t2#|--------------------------------------------------------------------|-
|--------------------------------------------------------------------|-
|--------------------------------------------------------------------|-
|11-11-11-11-11-11-11-11-11-11-11-11-11-11-11-11-11--9~--------------|-
|--------------------------------------------------------------------|-
|--------------------------------------------------------------------|- #/7t2##/7t1#


::CHORUS 1::
 D5     A5*        C5     B5
 You to have,      you to me,
#8t1##8t2#|----------------|--------------|-
|----------------|--------------|-
|-7-7-7-2--------|-5-5-5--3-----|-
|-7-7-7-2--------|-5-5-5--3-----|-
|-5-5-5-0--------|-3-3-3--1-----|-
|----------------|--------------|-#/8t2##/8t1#

  D5               A5*        C5               B5
  I don't mean to stare,      we don't have to breed,
#9t1##9t2#|---------------------------|--------------------------|-
|---------------------------|--------------------------|-
|-7---7---7---7---2-----2--2|-5---5---5---5----3----3-3|-
|-7---7---7---7---2-----2--2|-5---5---5---5----3----3-3|-
|-5---5---5---5---0-----0--0|-3---3---3---3----1----1-1|-
|---------------------------|--------------------------|-#/9t2##/9t1#

  D5             A5*          C5             B5
  We can plant a house,       we can build a tree,
#10t1##10t2#|---------------------------|--------------------------|-
|---------------------------|--------------------------|-
|-7---7---7---7--2-----2--2-|-5---5---5---5--3-----3--3|-
|-7---7---7---7--2-----2--2-|-5---5---5---5--3-----3--3|-
|-5---5---5---5--0-----0--0-|-3---3---3---3--1-----1--1|-
|---------------------------|--------------------------|-#/10t2##/10t1#

  D5             A5*          C5                B5
  I don't even   care,        we could have all three.
#11t1##11t2#|---------------------------|-----------------------------|-
|---------------------------|-----------------------------|-
|-7---7---7---7--2-----2--2-|-5---5---5---5-----3-----3--3|-
|-7---7---7---7--2-----2--2-|-5---5---5---5-----3-----3--3|-
|-5---5---5---5--0-----0--0-|-3---3---3---3-----1-----1--1|-
|---------------------------|-----------------------------|-#/11t2##/11t1#


::BRIDGE 1::
  F#5  E5  F#5  A5  E5    F#5  E5  F#5  A5  E5
                     She said,               she said,
#12t1##12t2#|-----------------------|-----------------------|-
|-----------------------|-----------------------|-
|-----------------------|-----------------------|-
|-4-4---2---4---/7---2--|-4-4---2---4---/7---2--|-
|-4-4---2---4---/7---2--|-4-4---2---4---/7---2--|-
|-2-2---0---2---/5---0--|-2-2---0---2---/5---0--|-#/12t2##/12t1#

  F#5  E5  F#5  A5  E5    F#5  E5  F#5  A5  E5
                     She said,               she said,
#13t1##13t2#|-----------------------|-----------------------|-
|-----------------------|-----------------------|-
|-----------------------|-----------------------|-
|-4-4---2---4---/7---2--|-4-4---2---4---/7---2--|-
|-4-4---2---4---/7---2--|-4-4---2---4---/7---2--|-
|-2-2---0---2---/5---0--|-2-2---0---2---/5---0--|-#/13t2##/13t1#

  F#5  E5  F#5  A5  E5    F#5  E5  F#5  A5  E5
                     She said,               she said,
#14t1##14t2#|-----------------------|-----------------------|-
|-----------------------|-----------------------|-
|-----------------------|-----------------------|-
|-4-4---2---4---/7---2--|-4-4---2---4---/7---2--|-
|-4-4---2---4---/7---2--|-4-4---2---4---/7---2--|-
|-2-2---0---2---/5---0--|-2-2---0---2---/5---0--|-#/14t2##/14t1#

  F#5  E5  F#5  A5  E5    F#5  E5  F#5  A5  E5
                     She said,               she said________
#15t1##15t2#|-----------------------|-----------------------|-
|-----------------------|-----------------------|-
|-----------------------|-----------------------|-
|-4-4---2---4---/7---2--|-4-4---2---4---/7---2--|-
|-4-4---2---4---/7---2--|-4-4---2---4---/7---2--|-
|-2-2---0---2---/5---0--|-2-2---0---2---/5---0--|-#/15t2##/15t1#


::VERSE 2::
 I dont care,i dont care,i dont care,i dont care,i dont care, care if im old
#16t1##16t2#|--------------------------------------------------------------------------|-
|--------------------------------------------------------------------------|-
|--------------------------------------------------------------------------|-
|11-11-11-11-11-11-11-11-11-11-11-11-11-11-11-11-11-11-11-11-11-11-11-11-9~|-
|--------------------------------------------------------------------------|-
|--------------------------------------------------------------------------|-#/16t2##/16t1#

#17t1#I don't mind, I don't mind, I don't mind, I don't mind, I don't mind, mind
#17t2#|--------------------------------------------------------------------------|-
|--------------------------------------------------------------------------|-
|--------------------------------------------------------------------------|-
|11-11-11-11-11-11-11-11-11-11-11-11-11-11-11-11-11-11-11-11-11-11-11-11-9~|-
|--------------------------------------------------------------------------|-
|--------------------------------------------------------------------------|-| if I don't have a mind. |
|-------------------------|-
|-------------------------|-
|-------------------------|-
|11-11-11-11-11-11--9~~~--|-
|-------------------------|-
|-------------------------|-#/17t2##/17t1#

#18t1#Get away, get away, get away, get away, way, way from your house.
#18t2#|--------------------------------------------------------------------|-
|--------------------------------------------------------------------|-
|--------------------------------------------------------------------|-
|11-11-11-11-11-11-11-11-11-11-11-11-11-11-11-11-11-11-11--9~~~~-----|-
|--------------------------------------------------------------------|-
|--------------------------------------------------------------------|-#/18t2##/18t1#

 
#19t1#Im afraid, im afraid, im afraid, im afraid, afraid ghost___________
#19t2#|--------------------------------------------------------------------|-
|--------------------------------------------------------------------|-
|--------------------------------------------------------------------|-
|11-11-11-11-11-11-11-11-11-11-11-11-11-11-11-11-11--9b~~------------|-
|--------------------------------------------------------------------|-
|--------------------------------------------------------------------|- #/19t2##/19t1#


::CHORUS 2::
 D5     A5*        C5     B5
 You to have,      you to me,
#20t1##20t2#|----------------|--------------|-
|----------------|--------------|-
|-7-7-7-2--------|-5-5-5--3-----|-
|-7-7-7-2--------|-5-5-5--3-----|-
|-5-5-5-0--------|-3-3-3--1-----|-
|----------------|--------------|-#/20t2##/20t1#

  D5               A5*        C5               B5
  I don't mean to stare,      we don't have to breed,
#21t1##21t2#|---------------------------|--------------------------|-
|---------------------------|--------------------------|-
|-7---7---7---7---2-----2--2|-5---5---5---5----3----3-3|-
|-7---7---7---7---2-----2--2|-5---5---5---5----3----3-3|-
|-5---5---5---5---0-----0--0|-3---3---3---3----1----1-1|-
|---------------------------|--------------------------|-#/21t2##/21t1#

  D5             A5*          C5             B5
  We can plant a house,       we can build a tree,
#22t1##22t2#|---------------------------|--------------------------|-
|---------------------------|--------------------------|-
|-7---7---7---7--2-----2--2-|-5---5---5---5--3-----3--3|-
|-7---7---7---7--2-----2--2-|-5---5---5---5--3-----3--3|-
|-5---5---5---5--0-----0--0-|-3---3---3---3--1-----1--1|-
|---------------------------|--------------------------|-#/22t2##/22t1#

  D5             A5*          C5                B5
  I don't even   care,        we could have all three.
#23t1##23t2#|---------------------------|-----------------------------|-
|---------------------------|-----------------------------|-
|-7---7---7---7--2-----2--2-|-5---5---5---5-----3-----3--3|-
|-7---7---7---7--2-----2--2-|-5---5---5---5-----3-----3--3|-
|-5---5---5---5--0-----0--0-|-3---3---3---3-----1-----1--1|-
|---------------------------|-----------------------------|-#/23t2##/23t1#


::BRIDGE 2::
  F#5  E5  F#5  A5  E5    F#5  E5  F#5  A5  E5
                     She said,               she said,
#24t1##24t2#|-----------------------|-----------------------|-
|-----------------------|-----------------------|-
|-----------------------|-----------------------|-
|-4-4---2---4---/7---2--|-4-4---2---4---/7---2--|-
|-4-4---2---4---/7---2--|-4-4---2---4---/7---2--|-
|-2-2---0---2---/5---0--|-2-2---0---2---/5---0--|-#/24t2##/24t1#

  F#5  E5  F#5  A5  E5    F#5  E5  F#5  A5  E5
                     She said,               she said,
#25t1##25t2#|-----------------------|-----------------------|-
|-----------------------|-----------------------|-
|-----------------------|-----------------------|-
|-4-4---2---4---/7---2--|-4-4---2---4---/7---2--|-
|-4-4---2---4---/7---2--|-4-4---2---4---/7---2--|-
|-2-2---0---2---/5---0--|-2-2---0---2---/5---0--|-#/25t2##/25t1#

  F#5  E5  F#5  A5  E5    F#5  E5  F#5  A5  E5
                     She said,               she said,
#26t1##26t2#|-----------------------|-----------------------|-
|-----------------------|-----------------------|-
|-----------------------|-----------------------|-
|-4-4---2---4---/7---2--|-4-4---2---4---/7---2--|-
|-4-4---2---4---/7---2--|-4-4---2---4---/7---2--|-
|-2-2---0---2---/5---0--|-2-2---0---2---/5---0--|-#/26t2##/26t1#

  F#5  E5  F#5  A5  E5    F#5  E5  F#5  A5  E5
                     She said,               she said________
#27t1##27t2#|-----------------------|-----------------------|-
|-----------------------|-----------------------|-
|-----------------------|-----------------------|-
|-4-4---2---4---/7---2--|-4-4---2---4---/7---2--|-
|-4-4---2---4---/7---2--|-4-4---2---4---/7---2--|-
|-2-2---0---2---/5---0--|-2-2---0---2---/5---0--|-#/27t2##/27t1#



::SOLO (Strum real fast)::
_____
#28t1##28t2#|--0--0--0--0--0--0--0--0--0--0--0--0--0--0--0--0--0--0--0--0--0--0--0--0--|
|-/11-11-11-11-11-11-11-11-11-11-11-11-11-11-11-11-11-11-11-11-11-11-11-11\|
|-/12-12-12-12-12-12-12-12-12-12-12-12-12-12-12-12-12-12-12-12-12-12-12-12\|
|-/13-13-13-13-13-13-13-13-13-13-13-13-13-13-13-13-13-13-13-13-13-13-13-13\|
|--------------------------------------------------------------------------|
|--------------------------------------------------------------------------|
||                                                                        ||#/28t2##/28t1#
#29t1##29t2#|--0--0--0--0--0--0--0--0--0--0--0--0--0--0--0--0--0--0--0--0--0--0--0--0--|
|-/13-13-13-13-13-13-13-13-13-13-13-13-13-13-13-13-13-13-13-13-13-13-13-13\|
|-/14-14-14-14-14-14-14-14-14-14-14-14-14-14-14-14-14-14-14-14-14-14-14-14\|
|-/15-15-15-15-15-15-15-15-15-15-15-15-15-15-15-15-15-15-15-15-15-15-15-15\|
|--------------------------------------------------------------------------|
|--------------------------------------------------------------------------|
||                                                                        ||#/29t2##/29t1#
#30t1##30t2#|--0--0--0--0--0--0--0--0--0--0--0--0--0--0--0--0--0--0--0--0--0--0--0--0--|
|-/16-16-16-16-16-16-16-16-16-16-16-16-16-16-16-16-16-16-16-16-16-16-16-16\|
|-/17-17-17-17-17-17-17-17-17-17-17-17-17-17-17-17-17-17-17-17-17-17-17-17\|
|-/18-18-18-18-18-18-18-18-18-18-18-18-18-18-18-18-18-18-18-18-18-18-18-18\|
|--------------------------------------------------------------------------|
|--------------------------------------------------------------------------|
||                                 ||#/30t2##/30t1#
#31t1##31t2#|--0--0--0--0--0--0--0--0--0--0--0--|
|-/17-17-17-17-17-17-17-17-17-17-17\|
|-/18-18-18-18-18-18-18-18-18-18-18\|
|-/19-19-19-19-19-19-19-19-19-19-19\|
|-----------------------------------|
|-----------------------------------|
||                                 ||#/31t2##/31t1#
#32t1##32t2#|--0--0--0--0--0--0--0--0--0--0-----|
|-/18-18-18-18-18-18-18-18-18-18\---|
|-/19-19-19-19-19-19-19-19-19-19\---|
|-/20-20-20-20-20-20-20-20-20-20\---|
|-----------------------------------|
|-----------------------------------|#/32t2##/32t1#


::CHORUS 3::
 D5     A5*        C5     B5
 You to have,      you to me,
#33t1##33t2#|----------------|--------------|-
|----------------|--------------|-
|-7-7-7-2--------|-5-5-5--3-----|-
|-7-7-7-2--------|-5-5-5--3-----|-
|-5-5-5-0--------|-3-3-3--1-----|-
|----------------|--------------|-#/33t2##/33t1#

  D5               A5*        C5               B5
  I don't mean to stare,      we don't have to breed,
#34t1##34t2#|---------------------------|--------------------------|-
|---------------------------|--------------------------|-
|-7---7---7---7---2-----2--2|-5---5---5---5----3----3-3|-
|-7---7---7---7---2-----2--2|-5---5---5---5----3----3-3|-
|-5---5---5---5---0-----0--0|-3---3---3---3----1----1-1|-
|---------------------------|--------------------------|-#/34t2##/34t1#

  D5             A5*          C5             B5
  We can plant a house,       we can build a tree,
#35t1##35t2#|---------------------------|--------------------------|-
|---------------------------|--------------------------|-
|-7---7---7---7--2-----2--2-|-5---5---5---5--3-----3--3|-
|-7---7---7---7--2-----2--2-|-5---5---5---5--3-----3--3|-
|-5---5---5---5--0-----0--0-|-3---3---3---3--1-----1--1|-
|---------------------------|--------------------------|-#/35t2##/35t1#

  D5             A5*          C5                B5
  I don't even   care,        we could have all three.
#36t1##36t2#|---------------------------|-----------------------------|-
|---------------------------|-----------------------------|-
|-7---7---7---7--2-----2--2-|-5---5---5---5-----3-----3--3|-
|-7---7---7---7--2-----2--2-|-5---5---5---5-----3-----3--3|-
|-5---5---5---5--0-----0--0-|-3---3---3---3-----1-----1--1|-
|---------------------------|-----------------------------|-#/36t2##/36t1#



::BRIDGE 3/OUTRO::
  F#5  E5  F#5  A5  E5    F#5  E5  F#5  A5  E5
                     She said,               she said,
#37t1##37t2#|-----------------------|-----------------------|-
|-----------------------|-----------------------|-
|-----------------------|-----------------------|-
|-4-4---2---4---/7---2--|-4-4---2---4---/7---2--|-
|-4-4---2---4---/7---2--|-4-4---2---4---/7---2--|-
|-2-2---0---2---/5---0--|-2-2---0---2---/5---0--|-#/37t2##/37t1#

  F#5  E5  F#5  A5  E5    F#5  E5  F#5  A5  E5
                     She said,               she said,
#38t1##38t2#|-----------------------|-----------------------|-
|-----------------------|-----------------------|-
|-----------------------|-----------------------|-
|-4-4---2---4---/7---2--|-4-4---2---4---/7---2--|-
|-4-4---2---4---/7---2--|-4-4---2---4---/7---2--|-
|-2-2---0---2---/5---0--|-2-2---0---2---/5---0--|-#/38t2##/38t1#

  F#5  E5  F#5  A5  E5    F#5  E5  F#5  A5  E5
                     She said,               she said,
#39t1##39t2#|-----------------------|-----------------------|-
|-----------------------|-----------------------|-
|-----------------------|-----------------------|-
|-4-4---2---4---/7---2--|-4-4---2---4---/7---2--|-
|-4-4---2---4---/7---2--|-4-4---2---4---/7---2--|-
|-2-2---0---2---/5---0--|-2-2---0---2---/5---0--|-#/39t2##/39t1#

  F#5  E5  F#5  A5  E5    F#5  E5  F#5  A5  E5
                     She said,               she said________
#40t1##40t2#|-----------------------|-----------------------|-
|-----------------------|-----------------------|-
|-----------------------|-----------------------|-
|-4-4---2---4---/7---2--|-4-4---2---4---/7---2--|-
|-4-4---2---4---/7---2--|-4-4---2---4---/7---2--|-
|-2-2---0---2---/5---0--|-2-2---0---2---/5---0--|-#/40t2##/40t1#


::END ON:: 
E5
        Dude!______



#41t1##41t2#-----------------------------------------------------------------------------#/41t2##/41t1#
#42t1#                                   Key
#42t2#-----------------------------------------------------------------------------#/42t2##/42t1#

| /  slide up
| \  slide down
| h  hammer-on
| p  pull-off
| ~  vibrato
| +  harmonic
| x  Mute note

#43t1##43t2#-----------------------------------------------------------------------------#/43t2##/43t1#
                                   
#44t1##44t2#-----------------------------------------------------------------------------#/44t2##/44t1#
Composição: Dave Grohl / Krist Novoselic / Kurt CobainColaboração e revisão: Joao Alves