B
234
X24442
C#
234
X46664
D
123
XX0232
E
123
022100
F#
234
244322
Tom: G
[Intro]

#1t1#E
#1t2#E|------|
B|------|
G|------|
D|------|
A|-14/2-|
E|-12/0-|#/1t2##/1t1#

#2t1#  F#              E                  
#2t2#E|-----------------------------|
B|-----------------------------|
G|-----------------------------|
D|-------------------9-9-9-----|
A|-4---4^---4^-------7-7-7-----|
E|-2-0-2^-0-2^-0-0-0-------0---|#/2t2##/2t1#

#3t1#  F#              E     F#              E
#3t2#E|-------------------------------------------------|
B|-------------------------------------------------|
G|-------------------------------------------------|
D|--------------------9-9-9------------------------|
A|-4---4^----4^-------7-7-7-4---4^---4^-------/17~-|
E|-2-0-2^--0-2^-0-0-0-------2-0-2^-0-2^-0-0-0------|#/3t2##/3t1#

#4t1#   F#            E
#4t2#E|-------------------------------|
B|-------------------------------|
G|-------------------------------|
D|--------2----2---------2-2-2---|
A|------1----1----1---1--2-2-2---|
E|--2-2----2--------2----0-0-0---|#/4t2##/4t1#
Pick me, pick me yeah
let a long low signal
At ease, at least yeah
Everyone is hollow

Pick me, pick me yeah
Everyone is waiting
Pick me, pick me yeah
You can even pay them

#5t1#   B     C#    D     E
#5t2#E|-------------------------|
B|-------------------------|
G|-------------------------|
D|--4---4-6---6-7---7-9----|
A|--2-x-2-4-x-4-5-x-5-7----|
E|-------------------------|#/5t2##/5t1#
#6t1#  F#              E
#6t2#E|---------------------------|
B|---------------------------|
G|---------------------------|
D|-------------------9-9-9---|
A|-4---4^----4^------7-7-7---|
E|-2-0-2^--0-2^-0-0-0------0-|#/6t2##/6t1#
"dive , dive , dive , dive in me"

#7t1#   F#            E
#7t2#E|-------------------------------|
B|-------------------------------|
G|-------------------------------|
D|--------2----2---------2-2-2---|
A|------1----1----1---1--2-2-2---|
E|--2-2----2--------2----0-0-0---|#/7t2##/7t1#

Kiss this, kiss that yeah.
Let a long low signal.
At ease, at least yeah.
You can be my hero.

Pick me, pick me yeah
Everyone is waiting.
Hit me, hit me yeah.
I'm real good at hating.

#8t1#   B     C#    D     E
#8t2#E|-------------------------|
B|-------------------------|
G|-------------------------|
D|--4---4-6---6-7---7-9----|
A|--2-x-2-4-x-4-5-x-5-7----|
E|-------------------------|#/8t2##/8t1#

#9t1##9t2#E|---------------------------|
B|---------------------------|
G|---------------------------|
D|-------------------9-9-9---|
A|-4---4^----4^------7-7-7---|
E|-2-0-2^--0-2^-0-0-0------0-|#/9t2##/9t1#
"dive , dive , dive , dive in me"

#10t1#   F#  E
#10t2#E|-------------------------------|
B|-------------------------------|
G|-------------------------------|
D|--------2----2---------2-2-2---|
A|------1----1----1---1--2-2-2---|
E|--2-2----2--------2----0-0-0---|#/10t2##/10t1#

[Solo]

#11t1##11t2#E|------------------------|
B|------------------------|
G|------------------------|
D|-8-6-8^-6-8^-6---6-6-6--|
A|---------------7-7-7-7--|
E|------------------------|#/11t2##/11t1#
Composição: Krist Novoselic / Kurt CobainColaboração e revisão: emerson ferreiraRock Barcellos