busca

Dive

Nirvana

Tom: B
INTRO

E
|------|
|------|
|------|
|------|
|-14/2-|
|-12/0-|

  F#              E                  
|-----------------------------|
|-----------------------------|
|-----------------------------|
|-------------------9-9-9-----|
|-4---4^---4^-------7-7-7-----|
|-2-0-2^-0-2^-0-0-0-------0---|

  F#              E     F#              E
|-------------------------------------------------|
|-------------------------------------------------|
|-------------------------------------------------|
|--------------------9-9-9------------------------|
|-4---4^----4^-------7-7-7-4---4^---4^-------/17~-|
|-2-0-2^--0-2^-0-0-0-------2-0-2^-0-2^-0-0-0------|

VERSE
   F#            E
|-------------------------------|
|-------------------------------|
|-------------------------------|
|--------2----2---------2-2-2---|
|------1----1----1---1--2-2-2---|
|--2-2----2--------2----0-0-0---|
Pick me pick me yeah
live alone,lone  signal
at least, at least yeah
everyone is hollow
Pick me pick me yeah
You can even pay them

CHORUS
   B     C#    D     E
|-------------------------|
|-------------------------|
|-------------------------|
|--4---4-6---6-7---7-9----|
|--2-x-2-4-x-4-5-x-5-7----|
|-------------------------|

  F#              E
|---------------------------|
|---------------------------|
|---------------------------|
|-------------------9-9-9---|
|-4---4^----4^------7-7-7---|
|-2-0-2^--0-2^-0-0-0------0-|
"dive , dive , dive , dive in me"


   F#            E
|-------------------------------|
|-------------------------------|
|-------------------------------|
|--------2----2---------2-2-2---|
|------1----1----1---1--2-2-2---|
|--2-2----2--------2----0-0-0---|


Kiss this, kiss that yeah
Live alone, lone single 
At least, at least, yeah
You could be my hero

Pick me, pick me yeah
Everyone is waiting
Hit me, hit me yeah
I'm real good at hating

CHORUS
   B     C#    D     E
|-------------------------|
|-------------------------|
|-------------------------|
|--4---4-6---6-7---7-9----|
|--2-x-2-4-x-4-5-x-5-7----|
|-------------------------|

|---------------------------|
|---------------------------|
|---------------------------|
|-------------------9-9-9---|
|-4---4^----4^------7-7-7---|
|-2-0-2^--0-2^-0-0-0------0-|
"dive , dive , dive , dive in me"


   F#  E
|-------------------------------|
|-------------------------------|
|-------------------------------|
|--------2----2---------2-2-2---|
|------1----1----1---1--2-2-2---|
|--2-2----2--------2----0-0-0---|




Solo
|------------------------|
|------------------------|
|------------------------|
|-8-6-8^-6-8^-6---6-6-6--|
|---------------7-7-7-7--|
|------------------------|

Clipes