Principal
Tom: G
This is in standard tuning

#1t1# Harm______
#1t2#|----------------------------|
|----------------------------|
|----------------------------|
|----------------------------|
|-2.4---2.9------------------|
|----------------------------|#/1t2##/1t1#

#2t1#rythm fig 1
#2t2#|------------------------------------------|
|--------------------------------/9-9-9----|
|--------------------------------/9-9-9--0-|
|--------------------------------/9-9-9--0-|
|-4--0--4hb--4--0--4hb(4)--2--2--/7-7-7----|
|-2--0--2hb--2--0--2hb(2)--0--0------------|#/2t2##/2t1#


#3t1##3t2#|------------------------------------------|
|--------------------------------/9-9-9----|
|--------------------------------/9-9-9--0-|
|--------------------------------/9-9-9--0-|
|-4--0--4hb--4--0--4hb(4)--2--2--/7-7-7----|
|-2--0--2hb--2--0--2hb(2)--0--0------------|#/3t2##/3t1#

#4t1# Us
#4t2#|------------------------------------------|
|-----------------------------------9-9----|
|--------------------------------/9-9-9--0-|
|--------------------------------/9-9-9--0-|
|-4--0--4hb--4--0--4hb(4)--2--2--/7-7-7----|
|-2--0--2hb--2--0--2hb(2)--0--0------------|#/4t2##/4t1#

#5t1#                              End rythm fig 1
#5t2#|-------------------------------------------|
|-------------------------------------------|
|--------------------------------(2)--------|
|--------------------------------(2)/7------|
|-4--0--4hb--4--0--4hb(4)--2--2-------------|
|-2--0--2hb--2--0--2hb(2)--0--0---------5\0-|#/5t2##/5t1#

Verse: 

#6t1#Rhy. fig 2   Pick me    pick me,____ yeah
#6t2#|----------------------0-0----0-0-0---------|
|----------------------0-0----0-0-0---------|
|----------------------1-1----1-1-1---------|
|-----------2------(2)-2-2----2-2-2---------|
|--------0-------------2-2----2-2-2---------|
|--2--2----------------0-0----0-0-0-4hb-----|#/6t2##/6t1#
Play rhy. fig 2- 4 times more

Chorus:
Rhy. rig 3                                                       end rhy fig 3          
#7t1##7t2#|-----------------------------0------|------------------------------------------|
|-----------------------------0------|------------------------------------------|
|-4---4/6---4--6--7---6--7--9---9----|--------------------------------/9-9-9--0-|
|-4---4/6---4--6--7---6--7--9---9----|--------------------------------/9-9-9--0-|
|-2-0-2/4---2--4--5---4--5--7---7--6-|-4--0--4hb--4--0--4hb(4)--2--2--/7-7-7----|
|----------------------------------4-|-2--0--2hb--2--0--2hb(2)--0--0------------|#/7t2##/7t1#

play rhy fig 3- 3 and a half more times

Interlude:

#8t1##8t2#|------------------------|----------0--0--0--0-|-----------------------|
|------------------------|----------0--0--0--0-|-----------------------|
|------------------------|----------1--1--1--1-|-----------------------|
|----------2-------x--2--|------2---2--2--2--2-|----------2-------x--2-|
|-------0----------------|------2--------------|-------0---------------|
|--2--2------------------|---0--0--------------|-2--2------------------|#/8t2##/8t1#

#9t1##9t2#|--------------0--0--0--0--|--------------------------|------------0--0--0--0-|
|--------------0--0--0--0--|--------------------------|------------0--0--0--0-|
|--------------1--1--1--1--|--------------------------|------------1--1--1--1-|
|--(2)----2----2--2--2--2--|----------2--------x--2---|-------2----2--2--2--2-|
|---------2----------------|-------0------------------|-------2---------------|
|------0--0----------------|-2--2---------------------|----0--0---------------|#/9t2##/9t1#
                           
#10t1##10t2#|------------------0-------|-------0--0--0--0--|--------------------------------|
|--------------------------|-------0--0--0--0--|--------------------------------|
|------------------x--2----|-------1--1--1--1--|-3----1----3--3~~~~--1---3hb(3)-|
|-----------2--------------|---2---2--2--2--2--|--------------------------------|
|--------0-----------------|---2---------------|--------------------------------|
|--2--2--------------------|---0---------------|--------------------------------|#/10t2##/10t1#

Play ** 3 and a half more times
Composição: Krist Novoselic / Kurt CobainColaboração e revisão: Élison Duarte