busca

Dive

Nirvana

Intro/Verse
G-----------------------|
D-----------------2-2-2-|
A-----------------------|
E-2-0-2-0-2-0-0-------|

Chorus
G---------------------|-----------------------|
D---------------------|-----------------2-2-2-|
A-2---2-4---4---------|-----------------------|
E-------------3---3-0-|-2-0-2-2-0-2-0-0-------|

Clipes

Cifra Club Pro

Aproveite o Cifra Club com benefícios exclusivos e sem anúncios
Cifra Club Pro
Aproveite o Cifra Club com benefícios exclusivos e sem anúncios