busca

Do You Love Me

Nirvana

Tom: F
\=slide para baixo 
/=slide Slide para cima 
r=deixar a nota soar 
 
INTRO e REFRÃO 
e|-------------------|
B|-------------------|
G|------3------3-/8r-|
D|-3r---3-3r---3-/8r-|
A|-3r---1-3r---1-/6r-|
E|-1r------1r--------|
 
e|-------|
B|-------|
G|-------|
D|-8-\3r-|
A|-8-\3r-|
E|-6-\1r-|
 
VERSO 
e|----------------|
B|----------------|
G|-5-5-5-5-x------|
D|-5-5-5-5-x------|
A|-3-3-3-3-x------|
E|----------------| x3 
Toque com a batida "pra baixo, pra baixo, pra baixo, pra cima, pra baixo" 
 
e|---------|
B|---------|
G|-3-3-3-3-|
D|-3-3-3-3-|
A|-1-1-1-1-|
E|---------|
 
SOLO 
B|-8-6-5-6-8-6-|| 4x

B|-10-8-7-8-10-8-|| 3x

B|-10-8-7-8-7-6-|| 1x

Essa musica foi tocada no tributo ao Kiss 

Clipes