busca

Habanera Jam

Nirvana

Tom: A
E|---------------------------------------------------|
B|---------------------------------------------------|
G|---------------------------------------------------|
D|-----2---------2-2--------2--------2-2--------2----|
A|---2---2-----2-----2----2---2----2-----2----2---2--|
E|-0-------0-----------0--------0----------0--------0|

E|---------------------------------------------------|
B|---------------------------------------------------|
G|---------------------------------------------------|
D|---2-2--------2--------2-2-------------------------|
A|-2-----2----2---2----2-----2-----------------------|
E|---------0--------0----------0---------------------|

E|---------------------------------------------------|
B|-10-9--8-7--10-9--8-7---10-9-8-7-7-6-6-5-4-3-------|
G|---------------------------------------------------|
D|---------------------------------------------------|
A|---------------------------------------------------|
E|---------------------------------------------------|

E|---------------------------------------------------|
B|-10-9--8-7--10-9--8-7---10-9-8-7-7-6-6-5-4-3-------|
G|---------------------------------------------------|
D|---------------------------------------------------|
A|---------------------------------------------------|
E|---------------------------------------------------|

E|---------------------------------------------------|
B|---------------------------------------------------|
G|---------------------------------------------------|
D|-----2---------2-2--------2--------2-2--------2----|
A|---2---2-----2-----2----2---2----2-----2----2---2--|
E|-0-------0-----------0--------0----------0--------0|

E|---------------------------------------------------|
B|---------------------------------------------------|
G|---------------------------------------------------|
D|---2-2--------2------------------------------------|
A|-2-----2----2---2----------------------------------|
E|---------0--------0--------------------------------|



Clipes

Cifra Club Pro

Aproveite o Cifra Club com benefícios exclusivos e sem anúncios
Cifra Club Pro
Aproveite o Cifra Club com benefícios exclusivos e sem anúncios