busca

Heart Shaped Box

Nirvana

Tom: D Afinação: Db Gb Cb E G Db
Introdução: A5  F5  D5

   A5      F5      D5
E|------------------------------------------|
B|------------------------------------------|
G|-----2------------------------------------|
D|---2---2-----3--------0----0--------------|
A|-0---------3---3----0----0---0------------|
E|---------3-------0------------------------|

   A5      F5      D5
E|------------------------------------------|
B|------------------------------------------|
G|-----2--------------------------0---------|
D|---2---2-----3-----/4-4---4---4-4---------|
A|-0---------3---3--------3---3-3-----------|
E|---------3-------0------------------------|


Primeira Parte:

   A5      F5      D5
E|------------------------------------------|
B|------------------------------------------|
G|-----2------------------------------------|
D|---2---2-----3---------0----0-------------|
A|-0---------3---3---0-0----0---0-----------|
E|---------3-------0------------------------|

   A5      F5      D5
E|------------------------------------------|
B|------------------------------------------|
G|-----2--------------------------0---------|
D|---2---2-----3-----/4-4-4-4-----0---------|
A|-0---------3---3------------3-3-----------|
E|---------3-------0------------------------|

   A5      F5      D5
E|------------------------------------------|
B|------------------------------------------|
G|-----2------------------------------------|
D|---2---2-----3---------0----0-------------|
A|-0---------3---3---0-0----0---0-----------|
E|---------3-------0------------------------|

   A5      F5      D5
E|------------------------------------------|
B|------------------------------------------|
G|-----2--------------------------0---------|
D|---2---2-----3-----/4-4---4---4-0---------|
A|-0---------3---3--------3---3-3-0---------|
E|---------3-------0------------------------|

A5     F5       D5
   She eyes me like a Pisces 
  A5  F5    D5
When  I am weak
A5            F5       D5
   I've been locked inside 
                   A5  F5  D5
Your heart-shaped box for weeks
A5             F5     D5
   I've been drawn into 
             A5  F5   D5
Your magnet tar pit trap
A5        F5      D5
   I wish I could eat 
              A5  F5        D5
Your cancer when you turn black


Primeiro Refrão:

(Guitarra 1)

  P.N .      .  .     
E|------------------------------------------|
B|------------------------------------------|
G|-------4b--------4b--------------------4b-|
D|-2--2-------------------------------------|
A|-0--0------3--3------0--0--0--0--0--0-----|
E|-----------3--3------0--0--0--0--0--0-----|

(Guitarra 2)

E|------------------------------------------|
B|------------------------------------------|
G|-------2----------------------------------|
D|-2--2--2---------3---0-/4-4-4-4-----------|
A|-0--0--0---3--3--3---0----------3-3~------|
E|-----------3--3--3---0--------------------|

A5      F5
   Hey,    wait
D5
   I've got a new complaint
A5    F5       D5
   Forever in debt 

To your priceless advice
A5      F5
   Hey,    wait
D5
   I've got a new complaint
A5    F5       D5
   Forever in debt 

To your priceless advice
A5      F5
   Hey,   wait
D5
   I've got a new complaint
A5    F5       D5
   Forever in debt 
                     F5  D5
To your priceless advice
        F5  D5
Your advice

(Passagem)

   F5              D5
E|------------------------------------------|
B|------------------------------------------|
G|-----------------------4b--4b--4br--0-----|
D|------------------------------------------|
A|-3-3-3-3-3-3-3-3-0-0-0--------------------|
E|-3-3-3-3-3-3-3-3-0-0-0--------------------|

   F5              D5
E|------------------------------------------|
B|------------------------------------------|
G|------------------------------------------|
D|-------------------/4-4-4-4-----0---------|
A|-3-3-3-3-3-3-3-3-0----------3-3-----------|
E|-3-3-3-3-3-3-3-3-0------------------------|


Segunda Parte:

A5      F5     D5
   Meat-eating orchids 
         A5  F5        D5
Forgive no   one just yet
A5        F5     D5
   Cut myself on angel hair 
     A5  F5    D5
And ba__by's breath
A5         F5   D5
   Broken hymen of your Highness
A5   F5   D5
I'm left back
A5        F5          D5
   Throw down your umbilical noose
      A5   F5         D5
So I can climb right back


Segundo Refrão:

A5      F5
   Hey,    wait
D5
   I've got a new complaint
A5    F5       D5
   Forever in debt 

To your priceless advice
A5      F5
   Hey,    wait
D5
   I've got a new complaint
A5    F5       D5
   Forever in debt 

To your priceless advice
A5      F5
   Hey,   wait
D5
   I've got a new complaint
A5    F5       D5
   Forever in debt 
                     F5  D5
To your priceless advice
        F5  D5
Your advice


Solo:

E|-----------------------------------------------------|
B|-----------------------------------------------------|
G|-----12b14r12p10------10b12r10p9-----9b10--9-7-------|
D|-----------------------------------------------10-9--|
A|-12---------------10--------------8------------------|
E|-----------------------------------------------------|

E|-----------------------------------------------------|
B|-----------------------------------------------------|
G|-----12b14r12p10------10b12r10p9-----9b10--9-7-------|
D|-----------------------------------------------10-9--|
A|-12---------------10--------------8------------------|
E|-----------------------------------------------------|

E|-----------------------------------------------------|
B|-----------------------------------------------------|
G|-2---------------------------------------------------|
D|-2---------------------------------------------------|
A|-0---------------------------------------------------|
E|-----------------------------------------------------|


Terceira Parte:

A5     F5       D5
   She eyes me like a Pisces 
  A5  F5    D5
When  I am weak
A5            F5       D5
   I've been locked inside 
                   A5  F5  D5
Your heart-shaped box for weeks
A5             F5     D5
   I've been drawn into 
             A5  F5   D5
Your magnet tar pit trap
A5        F5      D5
   I wish I could eat 
              A5  F5        D5
Your cancer when you turn black


Terceiro Refrão:

A5      F5
   Hey,    wait
D5
   I've got a new complaint
A5    F5       D5
   Forever in debt 

To your priceless advice
A5      F5
   Hey,    wait
D5
   I've got a new complaint
A5    F5       D5
   Forever in debt 

To your priceless advice
A5      F5
   Hey,   wait
D5
   I've got a new complaint
A5    F5       D5
   Forever in debt 
                     F5  D5
To your priceless advice
        F5  D5
Your advice
        F5  D5
Your advice
        F5  D5
Your advice

Clipes

Cifra Club Pro

Aproveite o Cifra Club com benefícios exclusivos e sem anúncios
7 dias grátis
Cifra Club Pro
Aproveite o Cifra Club com benefícios exclusivos e sem anúncios
7 dias grátis