busca

Here She Comes Now

Nirvana

Tom: G
MAIN RIFF

D
----------------I----------------------I--------------------I----------------------I
----7-----7---7-I------12---------10---I-----7--------7----7I------12---------10---I
--7---7-7---7---I---11----11----9----9-I--7--7-----7--7--7--I---11----11----9----9-I
0---------------I-0-----------0--------I0-------0-----------I-0-----------0--------I
----------------I----------------------I--------------------I----------------------I
----------------I----------------------I--------------------I----------------------I
faça isso acima algumas vezes

VERSO

D
-------------I
----7----7---I
--7---7----7-I
0------------I
-------------I
-------------I

CHORUS

D               G   C
--------------I--------------I
3--3-3--3-3---I--------------I
2--2-2--2-2-0-I-----5--5-5---I  Isso é tocado 2 ou 4 vezes 
0--0-0--0-0-0-I5--5-5--5-5-0-I
------------0-I5--5-3--3-3-0-I
--------------I5--5----------I

Bb
--------------I-------------I
--------------I-------------I
3--3-3--3-3---I-3--3--3-3-0-I
3--3-3--3-3---I-3--3--3-3-0-I
1--1-1--1-1---I-1--1--1-1-0-I
--------------I-------------I


"HEAVIER" VERSE

D
2--2-2--2-2-2-I
3--3-3--3-3-3-I
2--2-2--2-2-2-I
0--0-0--0-0-0-I
--------------I
--------------I

Here She Comes Now
--------------------                
Aah, if she ever comes now now

Aah, she looks so good,
aah, she's made out of wood, just look and see

Clipes