Here She Comes Now

Nirvana

Bb
234
X13331
C
123
X32010
D
123
XX0232
G
123
320003
Tom: G
MAIN RIFF

#1t1#D
#1t2#----------------I----------------------I--------------------I----------------------I
----7-----7---7-I------12---------10---I-----7--------7----7I------12---------10---I
--7---7-7---7---I---11----11----9----9-I--7--7-----7--7--7--I---11----11----9----9-I
0---------------I-0-----------0--------I0-------0-----------I-0-----------0--------I
----------------I----------------------I--------------------I----------------------I
----------------I----------------------I--------------------I----------------------I#/1t2##/1t1#
faça isso acima algumas vezes

VERSO

#2t1#D
#2t2#-------------I
----7----7---I
--7---7----7-I
0------------I
-------------I
-------------I#/2t2##/2t1#

CHORUS

#3t1#D               G   C
#3t2#--------------I--------------I
3--3-3--3-3---I--------------I
2--2-2--2-2-0-I-----5--5-5---I  Isso é tocado 2 ou 4 vezes 
0--0-0--0-0-0-I5--5-5--5-5-0-I
------------0-I5--5-3--3-3-0-I
--------------I5--5----------I#/3t2##/3t1#

#4t1#Bb
#4t2#--------------I-------------I
--------------I-------------I
3--3-3--3-3---I-3--3--3-3-0-I
3--3-3--3-3---I-3--3--3-3-0-I
1--1-1--1-1---I-1--1--1-1-0-I
--------------I-------------I#/4t2##/4t1#


"HEAVIER" VERSE

#5t1#D
#5t2#2--2-2--2-2-2-I
3--3-3--3-3-3-I
2--2-2--2-2-2-I
0--0-0--0-0-0-I
--------------I
--------------I#/5t2##/5t1#

#6t1#Here She Comes Now
#6t2#--------------------                #/6t2##/6t1#
Aah, if she ever comes now now

Aah, she looks so good,
aah, she's made out of wood, just look and see
Composição: John Cale / Lou Reed / Maureen Tucker / Sterling MorrisonColaboração e revisão: