busca

I Hate Myself And I Want To Die

Nirvana

Tom: G
AFINAÇÃO:                   
e--------]                              
b--------]                              
g--------]
d--------]
a--------]
D|--------]
Inicio:

    C     Em        C     Em
|---------------------------------|
|---------------------------------|
|--5-5------------5-5-------------|
|--5-5--2-2-1-2---5-5--2-2-1-2----|
|--3-3--2-2-1-2---3-3--2-2-1-2----|
|-------2-2-1-2--------2-2-1-2----|

"Runny nose and runny yolk”....


Depois do primeiro verso entra o refrão:
    G     A#       G    A#
|-------------------------------------|
|-------------------------------------|
|-------------------------------------|
|--5-5-5/8-8-8---5-5-5/8-8-8----------|
|--5-5-5/8-8-8---5-5-5/8-8-8----------|
|--5-5-5/8-8-8---5-5-5/8-8-8----------|

"In the someday what's that sound?”....

Segundo verso:
    B     Em        B     Em
|---------------------------------|
|---------------------------------|
|--5-5------------5-5-------------|
|--5-5--2-2-1-2---5-5--2-2-1-2----|
|--3-3--2-2-1-2---3-3--2-2-1-2----|
|-------2-2-1-2--------2-2-1-2----|

"Broken heart and broken bones”....


Refrão novamente:

    G     A#       G    A#
|-------------------------------------|
|-------------------------------------|
|-------------------------------------|
|--5-5-5/8-8-8---5-5-5/8-8-8----------|
|--5-5-5/8-8-8---5-5-5/8-8-8----------|
|--5-5-5/8-8-8---5-5-5/8-8-8----------|

"In the someday what's that sound?”...

Agora é o solo, ao fundo vc pode ouvir o Kurt recitando algumas 
frases ,aqui estão elas: 

"words are broken lives
most people don't realize that two pieces of coral 
painted brown and attached to the skull by common wood screws
can make a child look like a deer"
 
|---------------------------------------------|
|---------------------------------------------|
|---------------------------------------------|
|----------5-4-3-2------3-2-0-2---------------|
|----2-3-5----------------------1-0-----------|
|--3--------------------------------3-1-0-----|

Depois do solo vem mais uma vez o refrão:

Refrão novamente:

    G     A#       G    A#
|-------------------------------------|
|-------------------------------------|
|-------------------------------------|
|--5-5-5/8-8-8---5-5-5/8-8-8----------|
|--5-5-5/8-8-8---5-5-5/8-8-8----------|
|--5-5-5/8-8-8---5-5-5/8-8-8----------|

"In the someday what's that sound?”...

Mais um verso, depois novamente o refrao:

    B     Em        B     Em
|---------------------------------|
|---------------------------------|
|--5-5------------5-5-------------|
|--5-5--2-2-1-2---5-5--2-2-1-2----|
|--3-3--2-2-1-2---3-3--2-2-1-2----|
|-------2-2-1-2--------2-2-1-2----|

    G     A#       G    A#
|-------------------------------------|
|-------------------------------------|
|-------------------------------------|
|--5-5-5/8-8-8---5-5-5/8-8-8----------|
|--5-5-5/8-8-8---5-5-5/8-8-8----------|
|--5-5-5/8-8-8---5-5-5/8-8-8----------|

Agora é o ultimo acorde da musica, e acaba:

    B     Em        B     Em
|----------------|
|----------------|
|--5-5-----------|
|--5-5--2-2-1-2--|
|--3-3--2-2-1-2--|
|-------2-2-1-2--|

****************************************************
         I Hate Myself and I Wanna Die
                   (K.Cobain)


Runny nose and runny yolk 
Even if you have a cold still 
You can cough on me again 
I still havent had my fulfill 

In the someday what's that sound? 
In the someday what's that sound? 
In the someday what's that sound? 
In the someday what's that sound? 

Broken heart and broken bones 
Think of how a castrated horsefeels 
One more quirky cliche'd phrase 
You're the one I wanna refill 

In the someday what's that sound? 
In the someday what's that sound? 
In the someday what's that sound? 
In the someday what's that sound? 

most people don't realize 
that two large pieces of coral, 
painted brown, and attached tohis skull 
with common wood screws can makea child look like a deer 

In the someday what's that sound? 
In the someday what's that sound? 
In the someday what's that sound? 
In the someday what's that sound? 

Runny nose and runny yolk 
Even if you have a cold still 
You can cough on me again 
I still havent had my fulfill 

In the someday what's that sound? 
In the someday what's that sound? 
In the someday what's that sound? 
In the someday what's that sound?

Clipes