busca

I Hate Myself And I Want To Die

Nirvana

Tom: G
intro/verse

C5        E5    D#5 E5  C5        E5    D#5 E5
-----------------------I-----------------------I
-----------------------I-----------------------I
5---5--5-0-------------I5---5--5-0-------------I
5---5--5-0-2--2--1--2--I5---5--5-0-2--2--1--0--I
3---3--3-0-2--2--1--2--I3---3--3-0-2--2--1--0--I
---------0-2--2--1--2--I---------0-2--2--1--0--I

chorus

--------------------I
--------------------I
--------3--3--3--0--I
5---5---3--3--3--0--I
5---5---1--1--1--0--I
5---5------------0--I

LAST REPEAT OF CHORUS
G5      A#5     B5
--------------------I
--------------------I
--------3--3--3--4--I
5---5---3--3--3--4--I
5---5---1--1--1--2--I
5---5---------------I

iNTERLUDE (quite highly improvised)
Gtr.1 (right speaker, clean)
-----------I-----------I-----3-5-6--5-6-I8--6--5--0------I
0----------I0----------I0---------------I----------------I
0----------I0----------I0---------------I----------------I
-----------I-----------I----------------I----------------I
3----------I3----------I3---------------I----------------I
-----------I-----------I----------------I----------------I
Gtr.2 (left speaker, distortion)
-----------I-----------I----------------I----------------I
-----------I-----------I----------------I----------------I
-----------I-----------I----------------I----------------I
-----------I--5--4--3--I2---------------I----------------I
---2---3---I5----------I----------------I----------------I
2--4/5-----I-----------I----------------I----------------I



Gtr.1
---0-2-3--2-3-I5--5-3-5b6-5-3I2--3-2-0--0-1-I0-------------I
--------------I--------------I--------------I----3-2-0-----I
--------------I--------------I--------------I--------------I
--------------I--------------I--------------I--------------I
--------------I--------------I--------------I--------------I
--------------I--------------I--------------I--------------I
Gtr.2
--------------I--------------I--------------I--------------I
--------------I--------------I--------------I--------------I
--------------I--------------I--------------I--------------I
---3-2-0-2----I--------------I--------------I--------------I
------------1-I--0-----------I--------------I--------------I
--------------I-----5--3--2--I--------------I--------------I

ENDING

C5        E5    D#5 D5  
-----------------------I
-----------------------I
5---5--5-0-------------I
5---5--5-0-2--2--1--0--I
3---3--3-0-2--2--1--0--I
---------0-2--2--1--0--I

Clipes