busca

If You Must

Nirvana

Tom: F
Standard tuning dropped down 1/2 step (afinação 1/2 tom abaixo

INTRO/VERSE
B5    Bbsus4
------------I
------------I
----------8-I
----------8-I
--9-----8---I
7---7-6-----I

PRE-CHORUS
B5
------------I
------------I
------------I
9-9-9-9-9-9-I
9-9-9-9-9-9-I
7-7-7-7-7-7-I

CHORUS
B5   F5
----------I
----------I
4---------I
4--0-3--0-I
2--0-3--0-I
---0-1--0-I

1ST BRIDGE

Ab5                   F5
------------I-------------I
------------I-------------I
------------I-------------I
6-6-6-6-6-6-I-6-6-6-6-3-3-I 3 times
6-6-6-6-6-6-I-6-6-6-6-3-3-I
4-4-4-4-4-4-I-4-4-4-4-1-1-I

Ab5
------------I-------------I
------------I-------------I
------------I-------------I
6-6-6-6-6-6-I-6-6-6-6-6-6-I
6-6-6-6-6-6-I-6-6-6-6-6-6-I
4-4-4-4-4-4-I-4-4-4-4-4-4-I

2ND BRIDGE

----------I-----------I
----------I-----------I
10--------I-----------I
10-----10-I-9---------I
8------10-I-9---------I
-------8--I-7---------I

Clipes

Cifra Club Pro

Aproveite o Cifra Club com benefícios exclusivos e sem anúncios
Cifra Club Pro
Aproveite o Cifra Club com benefícios exclusivos e sem anúncios