busca

In His Room

Nirvana

IN HIS ROOM

Yeah... It goes some how like this good luck ^^
    
VERSE
G-------------------------------------------------------------|
D-------------------------------------------------------------|
A-3-3-3------------------------3-3-3\6-6-6-6---------4-4-4-4--|
E-------4-4-4-4-3-3-3--1-1-1-1----------------6-6-6-----------|

CHORUS
G----------------------------------|
D----------------------------------|
A--------5-5-5-5---------3-3-3-3---|
E-2-2-2-----------5-5-5------------|

BRIGDE
G-----------------------------|
D-----------------------------|
A-2-2-2-2-2-------------------|
E-------------5-5-5-5-5-5-5---|

Clipes