busca

Lake Of Fire

Nirvana

Tom: F
Introdução: G5  F5  Bb5
            G5  C5  Bb5
            G5  F5  Bb5
            C5  F5  G5
            G5  F5  Bb5  G5
            G5  F5  G5

   G5         F5    Bb5
E|------------------------------------------|
B|------------------------------------------|
G|------------------3/----------------------|
D|-5--5----5\-3--3--3/----------------------|
A|-5--5----5\-3--3--1/----------------------|
E|-3--3----3\-1--1--------------------------|

   G5          C5         Bb5
E|------------------------------------------|
B|-------------5b6r5b6r5--3-----------------|
G|-------------5b6r5b6r5--3-----------------|
D|-5--5--x-x-x------------------------------|
A|-5--5--x-x-x------------------------------|
E|-3--3--x-x-x------------------------------|

   G5         F5    Bb5
E|------------------------------------------|
B|------------------------------------------|
G|------------------3/----------------------|
D|-5--5----5\-3--3--3/----------------------|
A|-5--5----5\-3--3--1/----------------------|
E|-3--3----3\-1--1--------------------------|

   C5         F5    G5
E|------------------------------------------|
B|------------------------------------------|
G|-5--5----5\-------------------------------|
D|-5--5----5\-3--3--5-----------------------|
A|-3--3----3\-3--3--5-----------------------|
E|------------1--1--3-----------------------|

   G5         F5 Bb5 G5
E|------------------------------------------|
B|------------------------------------------|
G|---------------3--------------------------|
D|-5--5----5\-3--3---5----------------------|
A|-5--5----5\-3--1---5----------------------|
E|-3--3----3\-1------3----------------------|

   G5         F5    G5
E|------------------------------------------|
B|------------------------------------------|
G|------------------------------------------|
D|-5--5----5\-3--3/-5-----------------------|
A|-5--5----5\-3--3/-5-----------------------|
E|-3--3----3\-1--1/-3-----------------------|

(Riff)

   G5                     F5          G5
E|------------------------------------------|
B|-----11----11----11...----6---6---6/8~----|
G|-/10----10----10---...--5---5---5-5/7~----|
D|------------------------------------------|
A|------------------------------------------|
E|------------------------------------------|


Primeira Estrofe:

G5
   Where do bad folks 
 F5           Bb5
Go when they die?
      G5
They don't go to heaven 
          C5         Bb5
Where the angels fly
 G5                     F5        Bb5
Go down to the lake of fire and fry
 C5
See them again 
          F5          G5
Till the Fourth of July

G5  F5  Bb5  G5
G5  F5  G5


Segunda Estrofe:

Dm                 Bb
I knew a lady who came from duluth
  Dm
She got bit by a dog 
        A
With a rabid tooth
     Dm
She went to her grave 
        Bb
Just a little too soon
          C
And she flew away howling 
        Dm
On the yellow moon

   Dm              Bb
E|------------------------------------------|
B|-6-----6---------6-----6------------------|
G|-7---7----7------7---7----7---------------|
D|-7-7--------7----8-8--------8-------------|
A|-5---------------8------------------------|
E|-----------------6------------------------|
 
  Dm               A
E|------------------------------------------|
B|-6-----6---------5-----5------------------|
G|-7---7----7------6---6----6---------------|
D|-7-7--------7----7-7--------7-------------|
A|-5---------------7------------------------|
E|-----------------5------------------------|

   Dm              Bb
E|------------------------------------------|
B|-6-----6---------6-----6------------------|
G|-7---7----7------7---7----7---------------|
D|-7-7--------7----8-8--------8-------------|
A|-5---------------8------------------------|
E|-----------------6------------------------|

    C                 Dm
E|-----------------------5------------------|
B|--8------8----------6--6--6--5h6--5h6-----|
G|--9----9----9-------7--7---------------7--|
D|-10-10--------10----7------------------7--|
A|-10-----------------5---------------------|
E|--8---------------------------------------|


Terceira Estrofe:

G5
   Where do bad folks 
 F5           Bb5
Go when they die?
      G5
They don't go to heaven 
          C5         Bb5
Where the angels fly
 G5                     F5        Bb5
Go down to the lake of fire and fry
 C5
See them again 
          F5          G5
Till the Fourth of July


Quarta Estrofe:

 Dm              Bb
People cry, the people moan
 Dm
Look for a dry place 
    A
To call their home
  Dm
Try to find some place 
    Bb
To rest their bones
          C
While the angels and the devils
        Dm
Try t' make their own


Quinta Estrofe:

G5
   Where do bad folks 
 F5           Bb5
Go when they die?
      G5
They don't go to heaven 
          C5         Bb5
Where the angels fly
 G5                     F5        Bb5
Go down to the lake of fire and fry
 C5
See them again 
          F5          G5
Till the Fourth of July


Solo:

E|------------------------------------------------------|
B|----8----6b--8--6-------------------------------------|
G|-/7----7----------5-3---------------------------------|
D|----------------------5-3-----------------------------|
A|--------------------------5-4-3-----------------------|
E|--------------------------------6-3-3-----------------|

E|------------------------------------------------------|
B|------------------3b----------------------------------|
G|------------------3b----------------------------------|
D|-----------3-3h5------5-------------------------------|
A|-----3-4-5--------------------------------------------|
E|-3-6--------------------------------------------------|

E|------------------------------------------------------|
B|-----6----6-------------------------------------------|
G|-/7-----7---7\5--3------------------------------------|
D|-------------------5--5--3----3----3------------------|
A|---------------------------5----5----5-4-3------------|
E|-------------------------------------------6-3--3-----|

E|------------------------------------------------------|
B|-----6-----8---6b-------------------3b----------------|
G|-/7-----/7---7-----7-3-5------------3b----------------|
D|-------------------------3--3--3h5------5--3--3h5-----|
A|------------------------------------------------------|
E|------------------------------------------------------|

E|------------------------------------------------------|
B|-3b-----3b--------------------------------------------|
G|-3b-----3b--------------------------------------------|
D|-----5------5-3----------------------3-3h5--------5---|
A|----------------5-4-3----------3-4-5--------3-----5---|
E|----------------------6-3--3-6-----------------6--3---|

Clipes

Cifra Club Pro

Aproveite o Cifra Club com benefícios exclusivos e sem anúncios
Cifra Club Pro
Aproveite o Cifra Club com benefícios exclusivos e sem anúncios