busca

Lounge Act

Nirvana

Tom: G
Riff 1
         B                       G                 C
E|-----------------------------------------------------------------|
B|-----------------------------------------------------------------|
G|-----4----X---4--4----4------------------------5----5---5----0---|
D|-----4----X---4--4----4--0---5-----5-----0-----5----5---5----0---|  (2x)
A|-----2----X---2--2----2--0---5-----5-----0-----3----3---3----0---|
E|-------------------------0---3-----3-----0-----------------------|

(Riff 1)
Thruth, covered in security
(Riff 1)
I can't let you smoother me
(Riff 1)
I'd like to but it wouldn't work
(Riff 1)
trading off and taking turns
(Riff 1)
I don't regret a thing

A         E         A
And I've got this friend
     D       G        E
You see who makes me feel
       A      D     G            E
And I wanted more than I could steal
        A      D          G       E
I'll arrest myself, I'll wear a shield
        A       D       G
I'll go out my way to prove I still

  Smell her on you
E|-------------------------------------------|----------------------------|
B|--2----------------------------------------|----------------------------|
G|--2----------------------------------------|----------------------------|
D|--2-------------------0-------5----5-------|----0-----------------------|
A|--0---------------3-----------5----5-------|----0-----------------------|
E|------------4-----------------3----3-------|----0-----------------------|

(Riff 1)
Don't tell me what I want to hear
(Riff 1)
Afraidof never knowing fear
(Riff 1)
Experience anything you need
(Riff 1)
I'll keep fighting jelousy
(Riff 1)
Until it's fucking gone

A         E         A
And I've got this friend
     D       G        E
You see who makes me feel
       A      D     G            E
And I wanted more than I could steal
        A      D          G       E
I'll arrest myself, I'll wear a shield
        A       D      G          E
I'll go out my way to make you a deal
       A      D    G              E
We've made a pact to learn from who 
      A          D    G     E
Ever we want without new rules
            A      D         G       E
We'll save what's lost and what we grew
           A          D       G
They'll go out their way to prove they

  Smell her on you                                Dive w/bar
E|-------------------------------------------|----------------------------|
B|--2----------------------------------------|----2-----------------------|
G|--2----------------------------------------|----2-----------------------| (4x)
D|--2-------------------0-------5----5-------|----2-----------------------|
A|--0---------------3-----------5----5-------|----0-----------------------|
E|------------4-----------------3----3-------|----------------------------|

Clipes