busca

Make You Happy

Nirvana

Tom: E
C#m       A5     F#m         G#m
 And if you save yourself
          A5       Bm
 You will make him happy

 distorcão

C#5          A5    F#5      G#5
 He'll keep you in a jar
            A5          B5
 And you'll think you're happy
C#5           A5         F#5      G#5
 He'll give you breathing holes
             A5           B5
 And you'll think you're happy
C#5         A5       F#5      G#5
 He'll cover you with dust
           A5                 C#5
 And you'll think you're happy now

 (A5 F#5)
 You're in a laundry room
 You're in a laundry room
 (A5 F#5)                     A5  G#5
 The clue that came to you, oh

C#5        A5       F#5      G#5
 And if you guard yourself
          A5          B5
 You will think you're happy
C#5           A5    F#5     G#5
 He'll keep you in a jar
             A5        B5
 Then you'll make him happy
C#5          A5       F#5       G#5
 He'll give you breathing holes
             A5          B5
 Then you'll think you're happy
C#5           A5    F#5     G#5
 He'll cover you with dust
             A5                 C#5
 Then you'll think you're happy now

 (A5 F#5)
 You're in a laundry room
 You're in a laundry room
 (A5 F#5)                     A5  G#5
 The clue that came to you, oh

ocultar tablatura

 SOLO

 |--------------------------------------------------------------
 |--------------------------------------------------------------
 |--------------------------------------------------------------
 |------3--5/7--7/10--10/12--12--12/14--14--14--14?14b-14--14---
 |-3h5----------------------------------------------------------
 |--------------------------------------------------------------

 --------------------------------------------------------------------
 --------------------------------------------------------------------
 --------------------------------------------------------------------
 --12--14?14b-14p-14p-14p--12----------------------------------------
 --------------------------------------------------------------------
 ------------------------------7p-7p?7pr-5--3--3--1--3--4--3--1--1h3-

 ------------------------------------------------------------
 ------------------------------------------------------------
 ------------------------------------------------------------
 ------------------------------------------------------------
 ----------------------------------------------------12?14---
 --3--3/5--5--5h7--7/8--8/10--10/12--12--13p12--10-----------

 ---------------------------------------------------------------
 ---------------------------------------------------------------
 ---------------------------------------------------------------
 --------------------15--17--17--15?17b-17--15--12--12--14?14b--
 --14/15--14/17--17---------------------------------------------
 ---------------------------------------------------------------

 -------------------------------------------------------------
 -------------------------------------------------------------
 -------------------------------------------------------------
 --14b-14--12--12--10--12--12--12--12--12--14--14/15--15--14--
 -------------------------------------------------------------
 -------------------------------------------------------------


 -------------------------------------------------------------------|
 -------------------------------------------------------------------|
 -------------------------------------------------------------------|
 --14h15p15--12--12h14--14--14p12--12--1210--109--97--75?-53---|
 -------------------------------------------------------------------|
 -------------------------------------------------------------------|


 (A5 F#5)
 You're in a laundry room
 You're in a laundry room
                           A5  G#5
 The clue that came to you, oh


 guitarra limpa

C#m         A5    F#m         G#m
 And if you fool yourself
          A5       Bm
 You will make him happy

 distorcão

C#5            A5    F#5    G#5
 He'll keep you in a jar
             A5          B5
 Then you'll think you're happy
C#5           A5       F#5      G#5
 He'll give you breathing holes
          A5        B5
 Then you will seem happy
C#5            A5    F#5     G#5
 You'll wallow in the shit
             A5          B5     (A5 F#5)
 Then you'll think you're happy now

(A5 F#5)
You're in a laundry room
You're in a laundry room
You're in a laundry room
(A5 F#5)                        A5  G#5
The clue that came to you, oh

Clipes