busca

Marijuana

Nirvana

Tom: Eb (forma dos acordes no tom de E) Afinação: Eb Ab Db Gb Bb Eb
E|------------0-----------0------2-------2--------2----|
B|---------------------------------------2--------2----|
G|-----------------------------------------------------|
D|-----------------------------------------------------|
A|-----------------------------------------------------|
E|--0-2--0-2----0-2--0-2----0-2-----0-2------0-2-------|

O dedilhado inicial fica assim, o kurt toca abafado até entra a bateria
Depois vem o primeiro verso:

|--333333---111111----|
|--333333---111111----|
|--444444---333333----|
|--555555---333333----|
|--555555---111111----|
|--333333---111111----|

"she has a moist vagina....”

agora volta pro dedilhado

E|-------2-------2-------1--------|
B|-------2-------2-------0--------|
G|--------------------------------|
D|--------------------------------|
A|--------------------------------|
E|--0-2-----0-2------0-2-----0-2--|

Segundo verso:

|--333333---111111----|
|--333333---111111----|
|--444444---333333----|
|--555555---333333----|
|--555555---111111----|
|--333333---111111----|

Novamente o Dedilhado:

E|-------2-------2-------2--------|
B|-------2-------2-------2--------|
G|--------------------------------|
D|--------------------------------|
A|--------------------------------|
E|--0-2-----0-2------0-2-----0-2--|

Agora vem a parte do refrão q o Kurt fica gritando

|--333333---111111-----------------------------------------------------|
|--333333---111111-----------------------------------------------------|
|--444444---333333-------------3b------------333333---3b-—3b--3b-------|
|--555555---333333---2-4-2-4-2-4-------55555-333333-2-4-2-4-2-4--------|
|--555555---111111---2-4-2-4-2-4-(...)-55555-111111-2-4-2-4-2-4-(...)--|
|--333333---111111---0-2-0-2-0-2-------33333--------0-2-0-2-0-2--------|

"Marijuanaaaaa.....”

Agora volta pro dedilhado, depois repete o primeiro verso da musica:

|------------------2------2----|
|------------------2------2----|
|------------------------------|
|------------------------------|
|------------------------------|
|-0-2---0-2---0-2----0-2-------|

|--333333---111111----|
|--333333---111111----|
|--444444---333333----|
|--555555---333333----|
|--555555---111111----|
|--333333---111111----|

"she has a moist vagina....”

E|-------2-------2-------2---------0-2-0--|
B|-------2-------0-------2----------------|
G|-----------------------0----------------|
D|----------------------------------------|
A|----------------------------------------|
E|--0-2-----0-2------0-2-----0-2----------|

|--333333---111111-----------------------------------------------------|
|--333333---111111-----------------------------------------------------|
|--444444---333333-------------3b------------333333---3b-—3b--3b-------|
|--555555---333333---2-4-2-4-2-4-------55555-333333-2-4-2-4-2-4--------|
|--555555---111111---2-4-2-4-2-4-(...)-55555-111111-2-4-2-4-2-4-(...)--|
|--333333---111111---0-2-0-2-0-2-------33333--------0-2-0-2-0-2--------|

"Marijuanaaaaa...”

E por ultimo, o solo:

|-------------------------------------------------------------------------10-10-10-10-|
|7/8/9-—7/8/9-—7/8/9—-7/8/9--6-6-6-6—7/8/9-9b—-7/8/9-9b-8-7—7/8/9-9b-8-7--------------|
|-------------------------------------------------------------------------------------|
|-------------------------------------------------------------------------------------|
|-------------------------------------------------------------------------------------|
|-------------------------------------------------------------------------------------|

Esse solo o kurt uso bastante improvisação, pode ser q esteja um tom acima ou abaixo dependendo de cada guitara... caso esteja um to acima é só tocar tudo uma casa antes.

She has a moist vagina
I particularly enjoy the circumference
I'll be sucking the warts off her anus
I prefer her to any other
Marijuana

Clipes