busca

Mexican Seafood

Nirvana

Tom: D
Intro/refrão
   A      G5   F#5  F#5               A     G5    F#5 
e|----5-----------I-----------------I---5------------I---------------I
b|-----5----0-----I-----------------I-----5----0-----I---------------I
G|----------0-0---I-----------------I----------0-0---I---------------I
D|-7----------0-4-I-4---------------I-7----------0-4-I---------------I
A|-7------------4-I-4-2-4-2p4-2-0---I-7------------4-I-4-4-5-7-5-4-0-I
E|-5------3-----2-I-2-------------2-I-5------3-----2-I-2-------------I

verso
e|----------------I-----------------I
b|----------------I-----------------I
G|-3------------3-I----------3------I
D|-2---2--2--2--2-I-2--2--2--2------I
A|-1---1--1--1--1-I-1--1--1--1------I
E|----------------I-----------------I

Solo (interlude)

e|----------------I-----------------I
b|----------------I-----------------I
G|-------------14-I-13-12--1211-12-I
D|-7--14-13-12-14-I-13-12--1211-12-I
A|-7--12-11-10----I-----------------I
E|-5--------------I-----------------I

A|----------------I-7-6-5-----------I
E|-0-3-4-0-4-5-6-0I-------7-6-5-3---I

Mexican Seafood
 

Oh, it's your face, it isn't even
true the jaws and claims
you entertain and chew the fungus mold
is my intraction
oh, it's only a, it is infection.
Only her tonight, until I pay
Only her tonight, I fell asleep
Oh, coming from, the diarrhea
Oh, her tired form
I come in peace and live a dirty book
on the cloudy class, fender burn, and become a childhood mess
Only her tonight, until I plea
Only her tonight, until I sing
Oh, take me back, lets just concise some
flies, bugs and fleas and even meal can't 
stain the vaseline
It's headed burger's out
in case it learns and takes it's childhood such

Clipes

Cifra Club Pro

Aproveite o Cifra Club com benefícios exclusivos e sem anúncios
7 dias grátis
Cifra Club Pro
Aproveite o Cifra Club com benefícios exclusivos e sem anúncios
7 dias grátis