busca

Milk It

Nirvana

Tom: A
Afinaçao E,a,d,g,b,e
        (Mi,Lá,Ré,Sol,Si,mi)

Intro:

(Riff 1)

  A5  Eb5 G5    G5    G#5   E5     A5  Eb5 G5    G5
|--------------------------------------------------|
|--------------------------------------------------|
|--------------------------------------------------|
|-----8-8------------------------------8-8---------| x2
|-7-7-6-6-5-5---5-5-5-6-6-6-2------7-7-6-6-5-5---5-|
|-5-5-----3-3-0-3-3-3-4-4-4-0------5-5-----3-3-0-3-|

(Riff 2)

  A5  Eb5 G5    G5    G#5   E5
|-----------------------------|
|-----------------------------|
|-----------------------------|
|-----8-8---------------------| x2
|-7-7-6-6-5-5---5-5-5-6-6-6-2-|
|-5-5-----3-3-0-3-3-3-4-4-4-0-|
_____________________________________

Versos

(Riff 3)

  A5          E5    E5 A5         E5
|-----------------------------------|
|-----------------------------------|
|-----------------------------------|
|-----------------------------------| 
|-----------------------------------|
|-5-5-5-5-5-5-0-----0/5-5-5-5-5-5-0-|

(Riff 3) 
I am my own parasite 
I don't need a host to live
We feed off of each other
We can share our endorphins 

(Riff 1)          (Riff 1)         (Riff 2)
        Doll steak,       test meat 

(Riff 3)
I own my own pet virus
I get to pet and name her
Her milk is my shit
My shit is her milk 

(Riff 1)          (Riff 1)         (Riff 2)
        Doll steak,       test meat 


(Riff 2)
Look on the bright side is suicide
Lost eyesight I'm on your side
Angel left wing, right wing, broken wing
Lack of iron and/or sleeping
Protector of the kennel
Ecto-plasma
Ecto-Skeletal
Obituary birthday
Your scent is still here in my place of recovery 

Clipes