busca

Mrs. Butterworth

Nirvana

Tom: F
Verso 1

e|-----------------|
B|-----------------|
G|-----------------|
D|--0------------1-|
A|---------------1-|
E|-0--5p3p0-0-0-1--|

Refrão
e|----------------------------|
B|----------------------------|
G|------9-9-9-9---------------|
D|-2-2--9-9-9-9-7-7-7-8-8-8-8-|
A|-2-2-/7-7-7-7-7-7-7-8-8-8-8-|
E|-0-0--------5-5-5-5-6-6-6-6-|

Verso 2

e|-----------------|
B|-----------------|
G|-----------------|
D|--0------------1-|
A|---------------1-|
E|-0--5p3p0-0-0-1--|

refrão de novo

e|----------------------------|
B|----------------------------|
G|------9-9-9-9---------------|
D|-2-2--9-9-9-9-7-7-7-8-8-8-8-|
A|-2-2-/7-7-7-7-7-7-7-8-8-8-8-|
E|-0-0--------5-5-5-5-6-6-6-6-|

Clipes

Cifra Club Pro

Aproveite o Cifra Club com benefícios exclusivos e sem anúncios
7 dias grátis
Cifra Club Pro
Aproveite o Cifra Club com benefícios exclusivos e sem anúncios
7 dias grátis