busca

Negative Creep

Nirvana

Tom: G
Intro/Verses

E|--------------------------|
B|--------------------------|
G|--------------------------|
D|--------------------------|
A|--------------------------|
D|--0-0-/12-0-0-0-0-12-----|
PM____      PM_____

1º riff                     O resto do refrão                      
E|--------------------------|---------------------
B|--------------------------|---------------------
G|--------------------------|---------------------
D|--5--4--------------------|---------------------
A|--5--4---0-3-6-6-3-0------|5-5-3---0-0-3-6-6-3-0
D|--5--4--------------------|------4- ------------
 

[Lyrics:]                                                                            
Negative Creep

This is out of our range
and it´s grown
This is getting to be
drone
I´m a negative creep
and I´´m stoned!
I´m a negative creep
and I´m...
    
Daddy´s little girl ain´t a girl no more (x6)

This is out of our range
and it´s grown
This is getting to be 
Uncontrolled
I´m a negative creep 
and I´m stoned!
I´m a negative creep
And I´m...

Fuck!
Yeah!
Drone!
Stoned!

Daddy's little girl ain't a girl no more (x15)

Clipes

Cifra Club Pro

Aproveite o Cifra Club com benefícios exclusivos e sem anúncios
7 dias grátis
Cifra Club Pro
Aproveite o Cifra Club com benefícios exclusivos e sem anúncios
7 dias grátis